PrimaNota.ru - самый крупный в мире бесплатный архив песенных текстов, аккордов, табулатур и нот


Black My Heart - We Werent Brought Up Right - текст песни, таба, видео

Регистрация Запомнить меня
Войти через:  Facebook Google Twitter Vk Yandex Mail.ru

Black My Heart - We Werent Brought Up Right - текст песни, таба, видео

Печатать
Просмотров: 127
------------------------------------------------------------------
                      
                       Black My Heart
       01 - black my heart - we weren't brought up right
                  Before the Devil - 2005
            -http://www.akthosting.com/~black6/
            -http://www.myspace.com/blackmyheart
                      Eulogy Recordings
------------------------------------------------------------------

Artist: Black My Heart
Song: We Weren't Brought Up Right
Album: Before the Devil
Tabber: AIM = Skatr5811
------------------------------------------------------------------

Black My Heart bitches. Listen to the song for some of the patterns.
This is my first tab, easy of course. IM me if you'd like to see 
more.
------------------------------------------------------------------


Tuning: Drop C (CGCFAD)
. = palm mute
\ = slide down


Intro (0:00)
D|-----------------------------------------------------------|
A|-----------------------------------------------------------|
F|-----------------------------------------------------------|
C|--00-30-20-50-3h2p3h2---000-300-200-500-3h2p3h2--333-1-1-1-|  
G|--00-30-20-50-3h2p3h2---000-300-200-500-3h2p3h2--333-1-1-1-|
C|--00-30-20-50-3h2p3h2---000-300-200-500-3h2p3h2--333-1-1-1-|
                           ..  ..  ..  .. . . . .   .. 


Verse 1 (0:09) "kill or be killed.."
D|---------------------------------------------------------------|
A|---------------------------------------------------------------|
F|---------------------------------------------------------------|
C|--2h1p2-30000--0-0-0---2h1p2-30000--0-0-0---2h1p2-30000--0-0-0-|
G|--2h1p2-30000--0-0-0---2h1p2-30000--0-0-0---2h1p2-30000--0-0-0-|
C|--2h1p2-30000--0-0-0---2h1p2-30000--0-0-0---2h1p2-30000--0-0-0-|
           ....  . . .          ....  . . .   . .    ....  . . .


Verse 1 cont.. (0:18)
D|-------------------------------|
A|-------------------------------|
F|-------------------------------|
C|--2h1p2--11-9-12-9--11h12-11h9-|
G|--2h1p2--11-9-12-9--11h12-11h9-|
C|--2h1p2--11-9-12-9--11h12-11h9-|
    . .   


Verse 1 cont.. (0:22) "kill or be killed.."
D|---------------------------------------------------------|
A|---------------------------------------------------------|
F|---------------------------------------------------------|
C|--30000--0-0-0---2h1p2-30000--0-0-0---2h1p2-30000--0-0-0-|
G|--30000--0-0-0---2h1p2-30000--0-0-0---2h1p2-30000--0-0-0-|
C|--30000--0-0-0---2h1p2-30000--0-0-0---2h1p2-30000--0-0-0-|
     ....  . . .          ....  . . .   . .    ....  . . .


Verse 1 cont.. (0:31) 
D|-----------------------------------------|
A|-----------------------------------------|
F|-----------------------------------------|
C|--2h1p2-30000--0-0-0---2h1p2---000-2-3-0-|
G|--2h1p2-30000--0-0-0---2h1p2---000-2-3-0-|
C|--2h1p2-30000--0-0-0---2h1p2---000-2-3-0-|
           ....  . . .   . .      ..      
   

Chorus (0:36) "so rain on me.."
D|----------------------------------------------------------------------------|
A|----------------------------------------------------------------------------|
F|----------------------------------------------------------------------------|
C|--9--7-5-0000000-12h14-12-9-11-000000-9-14-11-000000-12h14-12-9-9h11p9--7-5-|
G|--9--7-5-0000000-12h14-12-9-11-000000-9-14-11-000000-12h14-12-9-9h11p9--7-5-|
C|--9--7-5-0000000-12h14-12-9-11-000000-9-14-11-000000-12h14-12-9-9h11p9--7-5-|
            ......               ......         ......  


Chorus cont.. (0:47) "today's the day.."
D|---------------------------------------------------------------------|
A|---------------------------------------------------------------------|
F|---------------------------------------------------------------------|
C|--0000000-12h14-12-9-11-000000-9-14-11-000000-12h14-12-9-9h11p9--7-5-|
G|--0000000-12h14-12-9-11-000000-9-14-11-000000-12h14-12-9-9h11p9--7-5-|
C|--0000000-12h14-12-9-11-000000-9-14-11-000000-12h14-12-9-9h11p9--7-5-|
     ......               ......         ......


Fill 1 (0:55) 
D|----------------------------------------------------|
A|----------------------------------------------------|
F|----------------------------------------------------|
C|--0000000-12h14-11h12-9h11-000000-12h14-11h12-14h11-|
G|--0000000-12h14-11h12-9h11-000000-12h14-11h12-14h11-|
C|--0000000-12h14-11h12-9h11-000000-12h14-11h12-14h11-|
     ......                  ......       


Fill 2 cont.. (1:00) 
D|-----------------------------------------------|
A|-----------------------------------------------|
F|-----------------------------------------------|
C|--000000-12h14-11h12-9h11-000000-0h2p0h3-01h01-|
G|--000000-12h14-11h12-9h11-000000-0h2p0h3-01h01-|
C|--000000-12h14-11h12-9h11-000000-0h2p0h3-01h01-|
    ......                  ......       

                                                         
Verse 2 (1:04) "devils.."                                __
D|----------------------------------------------------|    |
A|----------------------------------------------------|    |
F|----------------------------------------------------|    |
C|--0000000-12h14-11h12-9h11-000000-12h14-11h12-14h11-|    |
G|--0000000-12h14-11h12-9h11-000000-12h14-11h12-14h11-|    |
C|--0000000-12h14-11h12-9h11-000000-12h14-11h12-14h11-|    |
     ......                  ......                        |
                                                           |
                                                           |-Repeat 3X
Verse 2 cont.. (1:00)                                      |
D|-----------------------------------------------|         |
A|-----------------------------------------------|         |
F|-----------------------------------------------|         |
C|--000000-12h14-11h12-9h11-000000-0h2p0h3-01h01-|         |
G|--000000-12h14-11h12-9h11-000000-0h2p0h3-01h01-|         |
C|--000000-12h14-11h12-9h11-000000-0h2p0h3-01h01-|         |
    ......                  ......                       __|
   

Breakdown 1 (1:29) 
D|------------------------|
A|------------------------|
F|------------------------|
C|------------------------|
G|------------------------|
C|--0-0-000000000-0-00000-|
    . . ......... . .....   


Breakdown 1 cont.. (1:33)   __
D|------------------------|   |
A|------------------------|   |
F|------------------------|   |
C|--0-0-000000000-0-00000-|   |-Repeat 2X
G|--0-0-000000000-0-00000-|   |
C|--0-0-000000000-0-00000-|   |
    . . ......... . .....   __|


Breakdown 1 cont.. (1:40)   __
D|------------------------|   |
A|------------------------|   |
F|------------------------|   |
C|--0-0-000000000-0-00000-|   |-Repeat 4X (Let the notes ring)
G|--0-0-000000000-0-00000-|   |
C|--0-0-000000000-0-00000-|   |
    . . ......... . .....   __|


Fill 2 (1:55)
D|-----------------------------------------------------------------------|
A|-----------------------------------------------------------------------|
F|-----------------------------------------------------------------------|
C|-----------------------------------------------------------------------|
G|-----------------------------------------------------------------------|
C|--11-000000-12h14-12-9-11-000000-9-14-11-000000-12h14-12-9-9h11p9--7-5-|
       ......               ......         ......  


Chorus 2 (2:04) "so rain on me.."
D|-----------------------------------------------------------------------|
A|-----------------------------------------------------------------------|
F|-----------------------------------------------------------------------|
C|--0-000000-12h14-12-9-11-000000-9-14-11-000000-12h14-12-9-9h11p9--7-12-|
G|--0-000000-12h14-12-9-11-000000-9-14-11-000000-12h14-12-9-9h11p9--7-12-|
C|--0-000000-12h14-12-9-11-000000-9-14-11-000000-12h14-12-9-9h11p9--7-12-|
      ......               ......         ......  


Chorus 2 cont.. (2:13) "we are all.."
D|----------------------------------------------------------------------|
A|----------------------------------------------------------------------|
F|----------------------------------------------------------------------|
C|--0-000000-12h14-12-9-11-000000-9-14-11-000000-12h14-12-9-9h11p9--7-5-|
G|--0-000000-12h14-12-9-11-000000-9-14-11-000000-12h14-12-9-9h11p9--7-5-|
C|--0-000000-12h14-12-9-11-000000-9-14-11-000000-12h14-12-9-9h11p9--7-5-|
      ......               ......         ......  


Breakdown 2 (2:22) 
D|------------------------|
A|------------------------|
F|------------------------|
C|--0~--------------------|
G|--0~--------------------|
C|--0~--------------------|



Breakdown 2 cont.. (2:25)                           __
D|------------------------------------------------|   |
A|------------------------------------------------|   |
F|------------------------------------------------|   |
C|--0~--------------2-4-5-0~--------------9-11-12-|   |-Repeat 2X
G|--0~--------------2-4-5-0~--------------9-11-12-|   |
C|--0~--------------2-4-5-0~--------------9-11-12-|   |
                                                    __|


Breakdown 2 cont.. (2:39) "this is our family.."     
D|-------------------------------------------------|   
A|-------------------------------------------------|   
F|-------------------------------------------------|   
C|--11\0-00000-00000-2-4-5-4\0-00000-00000-9-11-12-|   
G|--11\0-00000-00000-2-4-5-4\0-00000-00000-9-11-12-|   
C|--11\0-00000-00000-2-4-5-4\0-00000-00000-9-11-12-|   
         ..... .....         . ..... .....


Breakdown 2 cont.. (2:47)    
D|-------------------------------------|-------------|   
A|-------------------------------------|-------------|   
F|-------------------------------------|-------------|   
C|--11\0-00000-00000-2-4-5-0~----------|-0-----------|   
G|--11\0-00000-00000-2-4-5-0~----------|-0-----------|   
C|--11\0-00000-00000-2-4-5-0~----------|-0---9-11-12-|  
       . ..... .....                     .                


Breakdown 2 cont.. (2:54) "this is our family.."     
D|----------------------------------------------|   
A|----------------------------------------------|   
F|----------------------------------------------|   
C|--0-00000-00000-2-4-5-4\0-00000-00000-9-11-12-|   
G|--0-00000-00000-2-4-5-4\0-00000-00000-9-11-12-|   
C|--0-00000-00000-2-4-5-4\0-00000-00000-9-11-12-|   
      ..... .....         . ..... .....


Breakdown 2 cont.. (3:01)    
D|---------------------------------------------------|   
A|---------------------------------------------------|   
F|---------------------------------------------------|   
C|--11\0-00000-00000-2-4-5-4\0-00000-00000---9-11-12-|  
G|--11\0-00000-00000-2-4-5-4\0-00000-00000---9-11-12-|  
C|--11\0-00000-00000-2-4-5-4\0-00000-00000---9-11-12-|  
       . ..... .....         . ..... .....


Breakdown 2 cont.. (3:08) "this is our family.."     
D|----------------------------------------------------------------|   
A|----------------------------------------------------------------|   
F|----------------------------------------------------------------|   
C|--0-0-00000-00000-2-4-5-0-0-00000-00000-9-11-12-0-0-00000-00000-|   
G|--0-0-00000-00000-2-4-5-0-0-00000-00000-9-11-12-0-0-00000-00000-|   
C|--0-0-00000-00000-2-4-5-0-0-00000-00000-9-11-12-0-0-00000-00000-|   
      . ..... .....         . ..... .....           . ..... .....


Again, first tab attempted. Please send comments, corrections.
AIM = Skatr5811
Добавлено: 19.06.2012
Другие материалы по этой песне:
  • Аккорды и текст

Страница создана 25.02.2012
http://primanota.ru/black-my-heart/we-werent-brought-up-right-chords.htm
Привет, Гость.
Предлагаем пройти революционный курс по гитаре.
Подарок от PrimaNota.Ru, забирай!