PrimaNota.ru - самый крупный в мире бесплатный архив песенных текстов, аккордов, табулатур и нот


Black My Heart - Thick As Blood - текст песни, таба, видео

Регистрация Запомнить меня
Войти через:  Facebook Google Twitter Vk Yandex Mail.ru

Black My Heart - Thick As Blood - текст песни, таба, видео

Печатать
Просмотров: 124
Black My Heart - Thick As Blood Tabs

Tuning: Drop B  (B F# B E G# C#)
Tabbed by: Tim Korbel

r = let it ring
s = stop

#1:

C#|--------------------------------------------------------------|
G#|--------------------------------------------------------------|
E |--------------------------------------------------------------|
B |-0-000-000-000----------000-000-000---------------------------|
F#|-0-000-000-000-5-8-5-35-000-000-000---------------------------|
B |-0-000-000-000----------000-000-000-5-8-5-35------------------|

C#|---------------------------------------------||
G#|---------------------------------------------||
E |---------------------------------------------||      2x
B |-000-000-000-000-000-----0-000-000-000-6--1--||
F#|-000-000-000-000-000-858-0-000-000-000-6--1--||
B |-000-000-000-000-000-----0-000-000-000-6--1--||


#2:

C#|-------------------------------------------------|
G#|-------------------------------------------------|
E |-------------------------------------------------|
B |-0r-----0s-0r-----00--00--0r-----0s-0r-----3-4-1-|
F#|-0r-----0s-0r-----003-006-0r-----0s-0r-----3-4-1-|
B |-0r-----0s-0r-----00--00--0r-----0s-0r-----3-4-1-|


C#|-------------------------------------------------|
G#|-------------------------------------------------|
E |-------------------------------------------------|
B |-0r-----0s-0r-----00--00--0r-----0s-0r-----1-4-1-|
F#|-0r-----0s-0r-----003-006-0r-----0s-0r-----1-4-1-|
B |-0r-----0s-0r-----00--00--0r-----0s-0r-----1-4-1-|


C#|---------------------------------------------------||
G#|---------------------------------------------------||
E |---------------------------------------------------||
B |-0r-----0s-0r-----00--00--0r-----0s-0r-----3-4-1---||
F#|-0r-----0s-0r-----003-006-0r-----0s-0r-----3-4-1---||
B |-0r-----0s-0r-----00--00--0r-----0s-0r-----3-4-1---||



(#1 - 2x)... Then:


#3:

C#|------------------------------------------------------||  5x 
G#|------------------------------------------------------||
E |------------------------------------------------------|| (#4th
B |-10s--000-000-10s--000-000-10s--000-000-5-3-5-8-6-5---|| one
F#|-10s--000-000-10s--000-000-10s--000-000-5-3-5-8-6-5---|| let it
B |-10s--000-000-10s--000-000-10s--000-000-5-3-5-8-6-5---|| ring)



#4:

C#|----------------------------------||       ----|
G#|----------------------------------||       ----|
E |----------------------------------||  5x   ----|
B |-35-55-535-55-535-55-5-11-133-3---||       -1r-|
F#|-13-33-313-33-313-33-3-11-133-3---||       -1r-|
B |-----------------------11-133-3---||       -1r-|


#5:

C#|------------------------------------------------||
G#|--------------------------------------1st--2nd--||time
E |---------------------------------------|----|---||   
B |-0-00000r---0-00r---0-00000r---0-000-(8-8)-(0)--||   2x
F#|-0-00000r---0-00r---0-00000r---0-000-(6-6)-(0)--||
B |-0-00000r---0-00r---0-00000r---0-000-------(0)--||


#6:

C#|----------------------------------------------||
G#|----------------------------------------------||
E |----------------------------------------------||       2x
B |-0-00000s---0-000-0s---0-00000s---0-000-8-8---||
F#|-0-00000s---0-000-0s---0-00000s---0-000-6-6---||
B |-0-00000s---0-000-0s---0-00000s---0-000-------||


Then:
(#5 - 1x with (1st)
(#5 - 1x with (1st+2nd)


Then:
(#1 - 2x)


Then:
(#3 - 4x with 1st and 2nd time letting it ring)

And..
C#|------||   
G#|------||
E |------||
B |-10s--||
F#|-10s--||
B |-10s--||


That's it, sorry for my bad use of language ;) i'm from germany so...
Tabs mostly by ear, no guarantee for mistakes. and now, have fun!
Добавлено: 07.07.2012
Другие материалы по этой песне:

Страница создана 23.06.2012
http://primanota.ru/black-my-heart/thick-as-blood-chords.htm
Привет, Гость.
Предлагаем пройти революционный курс по гитаре.
Подарок от PrimaNota.Ru, забирай!