PrimaNota.ru - самый крупный в мире бесплатный архив песенных текстов, аккордов, табулатур и нот


Black Mountain - Roller Coaster - таба, видео

Регистрация Запомнить меня
Войти через:  Facebook Google Twitter Vk Yandex Mail.ru

Black Mountain - Roller Coaster - таба, видео

Печатать
Просмотров: 178
Roller Coaster
Black Mountain


Standard tuning EADGBE


Riff 1 (bass only)
e|-------------------------------------|
B|-------------------------------------|
G|-------------------------------------|
D|---------------2------------------2--|
A|-4--4--4-2-3-4---4-2-3-4--4-2--------|
E|------------------------------4-2----|

Riff 2 (+ guitar)
e|-------------------------------------|
B|-------------------------------------|
G|-------------------------------------|
D|---------------2----------------2----|
A|-4--4--4-2-3-4---4-2-3-4--4-2-4---4--|
E|-------------------------------------|

Riff 3
e|-------------------------------------|
B|-------------------------------------|
G|---------------7----------------7----|
D|-9--9--9-7-8-9---9-7-8-9--9-7-9---9--|
A|-------------------------------------|
E|-------------------------------------|

Intro
Riff 1 (bass only)
Riff 2
Riff 2
Riff 3
Riff 1

Verse 1

C#             E      F#   E
Roller roller coaster
   C#               E           F#   E
Oh how we'd love to roll you in
C#             E      F#   E
Roller roller coaster
   C#               E           F#   E
Oh how we'd love to roll you in

Verse 2

C#     E            F#         E
Buy a ticket for a fancy airplane
C#               E           F#               E
Won't get you nowhere won't catch you no fame
C#     E            F#            E
Mother I know it's hard to let go
C#          E            F#           A
My baby's broken and all out on his own

Chorus:

Riff 4                     Riff 5
   B C#  B C# F#  E  B C#
e|------------------------|-----------------------|
B|------------------------|-----------------------|
G|------------------------|-4-2-------------------|
D|------------------------|-----4-2-4-2-4--2------|
A|-2-4-4-2-4--7---9--2-4--|------------------2-4--|
E|------------------------|-----------------------|

Riff 4
Riff 5
         B            A            Riff 4
I will cradle you beneath my wings
         A            B     Riff 4 + Riff 5
As you tremble in my warmth

         B            A            Riff 4
I will cradle you beneath my wings
     A               B     C#  E  E (arpeggios)
And teach you of my scorn

Verse 3

C#                E            F#         E
You can't trade plastic for a nuclear bomb
C#       E            F#               E
Forever after didn't turn out that long
C#    E          F#              E
Ruby I know you want to get well
C#          E            F#          A
My baby's broken and all out of herself

Riff 2
Riff 2
Riff 3
Riff 2

Solo 1:

 G#                   F#  
e|---------------------|---------------------|
B|-----7-9-7-9-7-9--7--|-----7-8-9-9-7-------|
G|-6-9-----------------|-6-9-----------9-----|
D|---------------------|---------------------|
A|---------------------|---------------------|
E|---------------------|---------------------| 

Riff 2b
e|----------------------------|
B|----------------------------|
G|----------------------------|
D|---------------2------------|
A|-4--4--4-2-3-4---4-2-3-4__--|
E|----------------------------|

Verse 1 (again)
end on B

Solo 2:

  C#                                G#  G   E   F#
e|-4------------------------------|-4---3---0---2--|    
B|-6----7----------------------5--|-4---3---0---2--|
G|-6--------8-9-8-9-8-6--6-4-6-9--|-5---4---2---3--|
D|-6------------------------------|-6---5---2---4--|   4x
A|-4------------------------------|-6---5---1---4--|
E|--------------------------------|-4---3---0---2--|

End on Riff 1


LYRICS:

Roller roller coaster
Oh how we'd love to roll you in
Roller roller coaster
Oh how we'd love to roll you in

Buy a ticket for a fancy airplane
Won't get you nowhere won't catch you no fame
Mother I know it's hard to let go
My baby's broken and all out on his own

Colonel Captain has slipped on his shades
Our family values have ruined this space
Black Plague disaster gold medal heart
I wish I loved you when the going got rough

I will cradle you beneath my wings
As you tremble in my warmth

I will cradle you beneath my wings
And teach you of my scorn

You can't trade plastic for a nuclear bomb
Forever after didn't turn out that long
Ruby I know you want to get well
My baby's broken and all out of herself

Roller roller coaster
Oh how we'd love to roll you in
Roller roller coaster
Oh how we'd love to roll you in

______________________________________________

Tabbed by Sexytom

Commentaires, corrections: civetom@hotmail.com

My website:
http://lostintheseventies.blogspot.com
http://lostin70s.tumblr.com
Добавлено: 29.05.2012
Другие материалы по этой песне:
  • Аккорды и текст

Страница создана 29.05.2012
http://primanota.ru/black-mountain/roller-coaster-chords.htm
Привет, Гость.
Предлагаем пройти революционный курс по гитаре.
Подарок от PrimaNota.Ru, забирай!