PrimaNota.ru - самый крупный в мире бесплатный архив песенных текстов, аккордов, табулатур и нот


Black Mountain - Queens Will Play - текст песни, таба, видео

Регистрация Запомнить меня
Войти через:  Facebook Google Twitter Vk Yandex Mail.ru

Black Mountain - Queens Will Play - текст песни, таба, видео

Печатать
Просмотров: 183
Song: Queens Will Play
Artist: Black Mountain
Album: "In the Future" [2008]

Tab by Devin Miller

Tuning: Drop D

*********************************************************************

-----INTRO/VERSE-----

e|-------|
B|-------|
G|-------|
D|-------|
A|-------|
D|-12\---|

MAIN RIFF:

   P.M......
e|-----------|     |-------------|
B|------x----|     |-------------|
G|------x----|     |-------------|
D|------x----|     |-3p2p0-----0-|
A|------x----|     |-------3-----|
D|-0--0----0-| x7  |-------------| x1

Blood crawls through the night holes
Blood sprawls across the walls
Blood crawls up and hassles
Blood sprawls across the walls


-----CHORUS-----

e|-------|
B|-------|
G|-------|
D|-------|
A|-------|
D|-12\---|

e|-----------------------------------------|----------------------------|--
B|-----------------------------------------|------x--------x--------x---|--
G|-----------------------------------------|------x--------x--------x---|--
D|-----------------------------------------|------x--------x--------x---|--
A|-1--1-1--1-1--1-1--1-0--0-0--0-----------|------x--------x--------x---|--
D|-------------------------------3--3-3--3-|-0--0---0-0--0---0-0--0---0-|--

  ----------|
  ------x---|
  ------x---|
  ------x---|
  ------x---|
  -0--0---0-| x2

We've all seen tomorrow
and there's truth to what they say
Demons may be hiding in our shadows

e|-----------------------------------------|
B|-----------------------------------------|
G|-----------------------------------------|
D|---------------------------------------3-|
A|-1--1-1--1-1--1-1--1-3--3-3--3-3--3-3----|
D|-----------------------------------------| x1


-----INTERLUDE-----

e|-----------------------------------------|
B|------x---------x---------x---------x----|
G|------x---------x---------x---------x--.-|
D|------x---------x---------x---------x--3-|
A|------x---------x---------x---------x----|
D|-0--0----0-0--0----0-0--0----0-0--0------| x3

e|-----------------------------------------|
B|------x---------x---------x--------------|
G|------x---------x---------x--------------|
D|------x---------x---------x--------------|
A|------x---------x---------x--------------|
D|-0--0----0-0--0----0-0--0----0-0--0-12\--| x1


-----VERSE-----

*Repeat riff from first verse.


   Blood crawls across the cancer
   Blood sprawls across the shore
   Blood crawls up and hassles
   Blood sprawls across the walls

-----CHORUS-----

*Repeat riff from first chorus.

   We've all seen tomorrow
   and there's truth to what they say
   Demons may be hiding in our shadows
   Let your times shine
   Queens will play

-----BRIDGE-----

e|-----------------------------------------|
B|------x---------x---------x--------------|
G|------x---------x---------x--------------|
D|------x---------x---------x--------------|
A|------x---------x---------x--------------|
D|-0--0----0-0--0----0-0--0----0-0--0-12\--| x1

e|-----------------------------------------|
B|---------------x-------------------------|
G|---------------x-------------------------|
D|---------------x--------2h3h5--3--2----0-|
A|------5-7------x--------------------3----|
D|-0--0-----0--0---0-0--0------------------| x8


-----GUITAR SOLO-----

Play these riffs in order:

e|--------------------------------------------|
B|--------------------------------------------|
G|--------------------------------------------|
D|--------------------------------------------|
A|-7h8~~~-7\---3/---5~~~-5~~~-5~~-5-5-8-5~~\--|
D|--------------------------------------------|

e|----------------------------------|
B|-8p6-5-6p5-3-5p3s1-3~-/6----------|
G|-------------------------7~~~~~\--|
D|----------------------------------|
A|----------------------------------|
D|----------------------------------|

e|-------------------------------------13-------|
B|-10h12--13-/15~~-15~~-13-15-13-15-13-13-15~~\-|
G|----------------------------------------------|
D|----------------------------------------------|
A|----------------------------------------------|
D|----------------------------------------------|

e|------------------------------------------------|
B|-----18-20-20b-18-20b-20b-20b-20b(22)~~~~~~~~---|
G|-/19--------------------------------------------|
D|------------------------------------------------|
A|------------------------------------------------|
D|------------------------------------------------|

e|-------------------|
B|-8p6---6-----------|
G|-----7---7-7~~~\---|
D|-------------------|
A|-------------------|
D|-------------------| x3

e|-------------------------|
B|-8p6---6-8-8b(10)~~~~~---|
G|-----7-------------------|
D|-------------------------|
A|-------------------------|
D|-------------------------|

e|------------------------------------------|
B|-6h8~~-6-8-8b-6~~~--6p5---5--6--5b--------|
G|------------------------7-----------7~~~~-|
D|------------------------------------------|
A|------------------------------------------|
D|------------------------------------------|

e|------------------------------------------------|
B|-8p6---8p6---8p6---8p6---8b(10)~~~~~~~~~--------|
G|-----7-----7-----7-----7------------------------|
D|------------------------------------------------|
A|------------------------------------------------|
D|------------------------------------------------|


-----CHORUS-----

*repeat chorus riff.

We've all seen tomorrow
and there's truth to what they say
Demons may be hiding in our shadows
Let your times shine
Queens will play


-----OUTRO JAM-----

e|----------------------------|
B|----------------------------|
G|----7----5-7----------------|
D|----7----5-7-----3p2p0----0-|
A|----5----3-5-----------3----|
D|-0--------------------------| repeat until end


****************************************************************
LEGEND

| /    slide-up
| \    slide down
| P.M. palm-mute
| x    dead note (chunky sound of hitting muted strings)
| p    pull-off
| h    hammer-on
| b    bend -- 8b(10) means bend 8 up to tone of 10
| ~    vibrato
| .    staccato note

============================================================================
Добавлено: 14.07.2012
Другие материалы по этой песне:
  • Аккорды и текст

Страница создана 14.07.2012
http://primanota.ru/black-mountain/queens-will-play-chords.htm
Привет, Гость.
Предлагаем пройти революционный курс по гитаре.
Подарок от PrimaNota.Ru, забирай!