PrimaNota.ru - самый крупный в мире бесплатный архив песенных текстов, аккордов, табулатур и нот


Black Moth Super Rainbow - Sun Lips - бас-таба, видео

Регистрация Запомнить меня
Войти через:  Facebook Google Twitter Vk Yandex Mail.ru

Black Moth Super Rainbow - Sun Lips - бас-таба, видео

Печатать
Просмотров: 18
-------------------------------------------------------------------------------
                             Sun Lips - Black Moth Super Rainbow
-------------------------------------------------------------------------------
Tabbed by: Joe B.
E-mail: bassistsr305@gmail.com

Tuning: E,A,D,G

Part 1 0:13
G|-----------------------------------------------------|
D|-----------------------------------------------------|
A|------------------------------------------10-8-7-----|
E|-0-3-3--3-3--3-8--8--8-8-8-0-6-6--6-6---6--------8\--|


G|---------------------------------------------------|
D|---------------------------------------------------|
A|----------------------------------------10-8-7-----|
E|-3-3--3-3--3-8--8--8-8-8-0-6-6--6-6---6--------8\--| Play 7x

Rest 1:10

Part 2 1:37
G|-----------------------------------------------------|
D|-----------------------------------------------------|
A|------------------------------------------10-8-7-----|
E|-0-3-3--3-3--3-8--8--8-8-8-0-6-6--6-6---6--------8\--|

G|---------------------------------------------------|
D|---------------------------------------------------|
A|----------------------------------------10-8-7-----|
E|-3-3--3-3--3-8--8--8-8-8-0-6-6--6-6---6--------8\--| Play 3x

Rest 2:06

Part 3 2:18
G|--------------|
D|--------------|
A|---10-8-7-----|
E|-6--------8\--|

G|---------------------------------------------------|
D|---------------------------------------------------|
A|----------------------------------------10-8-7-----|
E|-3-3--3-3--3-8--8--8-8-8-0-6-6--6-6---6--------8\--| Play 4x

Bass ends at 2:47.



| /  slide up
| \  slide down
| h  hammer-on
| p  pull-off
| ~  vibrato
| +  harmonic
| x  Mute note
===============================================================================
Добавлено: 10.06.2016
Другие материалы по этой песне:
  • Аккорды и текст

Страница создана 10.06.2016
http://primanota.ru/black-moth-super-rainbow/sun-lips-chords.htm
Привет, Гость.
Предлагаем пройти революционный курс по гитаре.
Подарок от PrimaNota.Ru, забирай!