PrimaNota.ru - самый крупный в мире бесплатный архив песенных текстов, аккордов, табулатур и нот


Black Messiah - Moskau - таба, видео

Регистрация Запомнить меня
Войти через:  Facebook Google Twitter Vk Yandex Mail.ru

Black Messiah - Moskau - таба, видео

Печатать
Просмотров: 300
-------------------------------------------------------------------------------
                             “Mouskau” – Black Messiah
-------------------------------------------------------------------------------
Tabbed by: Ivan ;D
Email:ivanskiwalker@hotmail.com

This song is just the bomb man XD 
Tuning: The g-tar is tuned two whole steps (low to high,C F Bd Ed G C)

   Intro                   x2                           x2
 C|------------------------|   |------------------------|
 G|--0--7-5-7---3-5---2-3--|   |------------------------|
Ed|------------------------|   |--0--7-5-7--3-5--2-3-0--|
Bd|------------------------|   |------------------------|
 F|------------------------|   |------------------------|
 C|------------------------|   |------------------------|
    
 C|--------------------------------------| 
 G|---4-4-4-4-4-4-4-4--2-2-2-2-2-2-2-2---|
Ed|---4-4-4-4-4-4-4-4--2-2-2-2-2-2-2-2---|
Bd|---2-2-2-2-2-2-2-2--0-0-0-0-0-0-0-0---|
 F|--------------------------------------|
 C|--------------------------------------|

 C|---------------------------------|----------|
 G|---------------------------------|----------|
Ed|----------4-2-0-2-------0--------|----------|
Bd|----3-3----------4-0-----4-2-4-0-|-2-0------|
 F|--2-----------------------------2|-----4-2--|
 C|---------------------------------|----------|

 C|--------------------------|
 G|--------------------------|
Ed|--4---2---7---2---4-----4-|
Bd|--4---2---7---2---4---2-4-|
 F|--2---0---5---0---2---4-2-|
 C|--------------------------|

 C|----------------------|----------|
 G|----------------------|----------|
Ed|--4-4--2-3--4-4-4-4---|--2--5-7--|
Bd|--4-4--2-3--4-4-4-4---|--2--5-7--|
 F|--2-2--0-1--2-2-2-2---|--0--3-5--|
 C|----------------------|----------|

 C|-------------------------------|
 G|-------------------------------|
Ed|--------------0---0---4---2-0--|
Bd|----4---4-2-0------4-2-------4-|
 F|--2----------------------------|
 C|-------------------------------|
                              I probably messt up the rhythm 
 C|---------------------------------------------------------------------------|
 G|---------------------------------------------------------------------------|
Ed|------------------------------0-0-0-0-0-0-0-0-0-0-0-0-0-0-0-0-0-0-0----—---|
Bd|-----4-4-4-4-4-4-4-4-4-4--2-0----------------------------------------------|
 F|--2-2----------------------------------------------------------------------|
 C|---------------------------------------------------------------------------|





 C|--------------------------------------------------------------------|
 G|--------------------------------------------------------------------|
Ed|-----------------4-4-4-4-4-4-4-4-4-4-4-4-4-4-4-4-2-2-2-0-0----------|
Bd|-2-2-2-2-0-0-0-0-------------------------------------------3-3b-----|
 F|--------------------------------------------------------------------|
 C|--------------------------------------------------------------------|
                           
Palm muted part :P
 C|------------------------------------------------------------------------------------|
 G|------------------------------------------------------------------------------------|
Ed|------3x--------3x---------2x--------2x--------7x----------7x--------2x--------2x---|
Bd|----3x—-3x----3x—-3x-----2x—-2x----2x—-2x----7x---7x----7x---7x----2x—-2x----2x--2x-|
 F|--2x--------2x---------0x--------0x--------5x---------5x---------4x--------4x-------|
 C|------------------------------------------------------------------------------------|

And don't know the little solo sorry :/// but I have the lyrics ;D 


================================ TAB Legend ===================================

|  /  slide up
|  \  slide down
|  h  hammer-on 
|  p  pull-off
|  b  bend note 
|  ~  vibrato
|  H  harmonic
|  PH pinch harmonic
|  x  Muted string
================================================================================
Lyrics to Moskau 
[originally by Dschinghis Khan]

Moskau, fremd und geheimnisvoll,
Türme aus rotem Gold, kalt wie das Eis.
Moskau, doch wer dich wirklich kennt,
der weiß, ein Feuer brennt in dir so heiß.
Kosaken hej, hej, hej, leert die Gläser, Natascha ha, ha, ha, du bist schön.
Tawaritsch hej, hej, hej, auf das Leben,
auf dein Wohl, Bruder hej Bruder ho! Hej, hej, hej, hej!

Moskau, Moskau, wirf die Gläser an die Wand,
Rußland ist ein schönes Land, ho, ho, ho, ho, ho! Hej!
Moskau, Moskau, deine Seele ist so groß,
Nachts da ist der Teufel los, ha, ha, ha, ha, ha! Hej!
Moskau, Moskau, Liebe schmeckt wie Kaviar,
Mädchen sind zum küssen da, ho, ho, ho, ho, ho!
Moskau, Moskau, komm wir tanzen auf dem Tisch,
bis der Tisch zusammenbricht, ha, ha, ha, ha, ha!
Moskau, Tor zur Vergangenheit, Spiegel der Zarenzeit, rot wie das Blut.
Moskau, wer deine Seele kennt, der weiß, die Liebe brennt heiß wie die Glut
Kosaken hej, hej, hej, leert die Gläser, Natascha ha, ha, ha, du bist schön.
Tawaritsch hej, hej, hej, auf die Liebe,
auf dein Wohl, Mädchen, hej Mädchen, ho! Hej, hej, hej, hej!
Добавлено: 28.07.2012
Вам также может быть интересно:
Другие материалы по этой песне:
  • Аккорды и текст

Страница создана 28.07.2012
http://primanota.ru/black-messiah/moskau-chords.htm
Привет, Гость.
Предлагаем пройти революционный курс по гитаре.
Подарок от PrimaNota.Ru, забирай!