PrimaNota.ru - самый крупный в мире бесплатный архив песенных текстов, аккордов, табулатур и нот


Black Lips - Family Tree - таба, видео

Регистрация Запомнить меня
Войти через:  Facebook Google Twitter Vk Yandex Mail.ru

Black Lips - Family Tree - таба, видео

Печатать
Просмотров: 177
Уроки эстрадного вокала в Санкт-Петербурге
Авторы: Jared Swilley, Cole Alexander, Ian Saint Pé Brown, Joe Bradley

-------------------------------------------------------------------------------
                             Family Tree - Black Lips
-------------------------------------------------------------------------------
Tabbed by: franzour
E-mail:

Tuning: eBGDAE

Hey folks! this is my first tab, enjoy it.    

Intro:
e|-5-5-7-9--10-10-10-10-10-9--7-5-5-5-5-5-7-8--9--9--9--9--9--5-4-2-2-2-2-2--|
B|-5-5-7-9--10-10-10-10-10-9--7-5-5-5-5-5-7-8--9--9--9--9--9--5-4-2-2-2-2-2--|
G|-6-6-8-10-11-11-11-11-11-10-8-6-6-6-6-6-7-8--9--9--9--9--9--5-4-2-2-2-2-2--|
D|-7-7-9-11-12-12-12-12-12-11-9-7-7-7-7-7-9-10-10-10-10-10-10-7-6-4-4-4-4-4--|
A|-7-7-9-11-12-12-12-12-12-11-9-7-7-7-7-7-9-10-10-10-10-10-10-7-6-4-4-4-4-4--|
E|-5-5-7-9--10-10-10-10-10-9--7-5-5-5-5-5-7-8--8--8--8--8--8--5-4-2-2-2-2-2--|

Verse: The chords for the verse are F# Bm
e|-2-2-----------------------------------------------------------------------|
B|-2-3-----------------------------------------------------------------------|
G|-2-4-----------------------------------------------------------------------|
D|-4-4-----------------------------------------------------------------------|
A|-4-2-----------------------------------------------------------------------|
E|-2-2-----------------------------------------------------------------------|

Chorus: These are the chords used, listen the song for the rithm. It starts
with F#, then goes to D at "down" and A at "me".      
e|-2-5-5-7-9--5-4-2----------------------------------------------------------|
B|-2-7-5-7-9--5-4-2----------------------------------------------------------|
G|-2-7-6-8-10-5-4-2----------------------------------------------------------|
D|-4-7-7-9-11-7-6-4----------------------------------------------------------|
A|-4-5-7-9-11-7-6-4----------------------------------------------------------|
E|-2-5-5-5-5--5-4-2----------------------------------------------------------|
Добавлено: 12.09.2013
Другие материалы по этой песне:
  • Аккорды и текст

Страница создана 12.09.2013
http://primanota.ru/black-lips/family-tree-chords.htm
Привет, Гость.
Предлагаем пройти революционный курс по гитаре.
Подарок от PrimaNota.Ru, забирай!