PrimaNota.ru - самый крупный в мире бесплатный архив песенных текстов, аккордов, табулатур и нот


Black Lips - Cant Dance - таба, видео

Регистрация Запомнить меня
Войти через:  Facebook Google Twitter Vk Yandex Mail.ru

Black Lips - Cant Dance - таба, видео

Печатать
Просмотров: 162
   Main Riff
E|------------------------------------------|
B|------------------------------------------|
G|------------------------------------------|
D|-99-1111-99-1111-----------------X's11----|
A|-77--7-7-77--7-7-1010-12-1010-12----------|
E|-------------------8-8--8--8-8--8---------|

  Contrary
E|------------------------------------------|
B|------------------------------------------|
G|------------------------------------------|
D|-------------------X's3-------------------|
A|-7-7-77-10-10--98-----9-9-9-9-9-9-9-9-----|
E|-5-5-55--8--8--76-----7-7-7-7-7-7-7-7-----|

E|------------------------------------------|
B|------------------------------------------|
G|------------------------------------------|
D|-99-1111-99-1111-----------------X's15----|
A|-77--7-7-77--7-7-1010-12-1010-12----------|
E|-------------------8-8--8--8-8--8---------|

E|------------------------------------------|
B|------------------------------------------|
G|------------------------------------------|
D|-------------------X's3-------------------|
A|-7-7-77-10-10--98-----9-9-9-9-9-9-9-9-----|
E|-5-5-55--8--8--76-----7-7-7-7-7-7-7-7-----|

E|------------------------------------------|
B|------------------------------------------|
G|------------------------------------------|
D|-99-1111-99-1111-----------------X's-7----|
A|-77--7-7-77--7-7-1010-12-1010-12----------|
E|-------------------8-8--8--8-8--8---------|

"Round 2 on the Next Hit..." by Jethro Rothy
Добавлено: 10.03.2012
Другие материалы по этой песне:
  • Аккорды и текст

Страница создана 10.03.2012
http://primanota.ru/black-lips/cant-dance-chords.htm
Привет, Гость.
Предлагаем пройти революционный курс по гитаре.
Подарок от PrimaNota.Ru, забирай!