PrimaNota.ru - самый крупный в мире бесплатный архив песенных текстов, аккордов, табулатур и нот


Black Lips - Buried Alive - таба, видео

Регистрация Запомнить меня
Войти через:  Facebook Google Twitter Vk Yandex Mail.ru

Black Lips - Buried Alive - таба, видео

Печатать
Просмотров: 120
Note: The intro is played by Guitar 1 and verse and chorus I tabbed are played by Guitar 2

Intro

Guitar 1 - e tuned to B
B--10-9-10-12-10-12-13-15-13-12-10-9-10-9-10-12-10-9-5--------|
B--10-9-10-12-10-12-13-15-13-12-10-9-10-9-10-12-10-9-5--------|
G-------------------------------------------------------------|
D-------------------------------------------------------------|
A-------------------------------------------------------------|
E-------------------------------------------------------------|

B--10-9-10-12-10-12-13-15-13-12-10-9-10-9-10-12--5--10--------|
B--10-9-10-12-10-12-13-15-13-12-10-9-10-9-10-12--5--10--------|
G-------------------------------------------------------------|
D-------------------------------------------------------------|
A-------------------------------------------------------------|
E-------------------------------------------------------------|

Verse

Guitar 2 - Standard tuning
e-------------------------------------------------------------|
B-------1-----------------------------------------------------|
G-------2-----------------------------------------------------|
D--2----2-----------------------------------------------------|
A--0----------------------------------------------------------|
E--0----------------------------------------------------------|
(Just Go back and forth hitting the "chord" on D, A and the Am on E and B, G, and D)

Chorus

Guitar 2 - Standard Tuning
e-------------------------------------------------------------|
B--1--(x8)--1--(x8)-------------------------------------------|
G--2--------2-------------------------------------------------|
D--3--------2-------------------------------------------------|
A-------------------------------------------------------------|
E-------------------------------------------------------------|
(Play this 3 times, chords are F and Am) Also you can just jump back and forth between F 
Am, but going from Am to F instead)

Guitar 2 - Standard Tuning
e--1----------------------------------------------------------|
B--3--(x4)--1--(x4)--1--(x8)----------------------------------|
G--2--------0--------2----------------------------------------|
D-----------2--------2----------------------------------------|
A-----------3-------------------------------------------------|
E-------------------------------------------------------------|
(Play this once after the first part of the chorus 3 times, chords are Dm, C, and Am)

Intro
Verse
Chorus
Intro
Verse
Chorus
Intro
Добавлено: 22.05.2012
Другие материалы по этой песне:
  • Аккорды и текст

Страница создана 22.05.2012
http://primanota.ru/black-lips/buried-alive-chords.htm
Привет, Гость.
Предлагаем пройти революционный курс по гитаре.
Подарок от PrimaNota.Ru, забирай!