PrimaNota.ru - самый крупный в мире бесплатный архив песенных текстов, аккордов, табулатур и нот


Black Light Burns - New Hunger - текст песни, таба, видео

Регистрация Запомнить меня
Войти через:  Facebook Google Twitter Vk Yandex Mail.ru

Black Light Burns - New Hunger - текст песни, таба, видео

Печатать
Просмотров: 142
Авторы музыки: Wes Borland

-------------------------------------------------------------------------------
		     New Hunger - Black Light Burns
-------------------------------------------------------------------------------
Tabbed by: Stephen McFall
Email: smboo28@aim.com

Tuning: All Parts Written For 6 String Guitar in C# Standard Tuning Low to High (C#,F#,B,E,G#,C#)

Main Riff of song  This is all synth effects obviously I just tabbed them for guitar
This part is an odd effect it may actually be a ring mod I'll mess around with the one 
my AX3000G and see if I can get it to sound like this however I know even if it's a ring 
effect it comes from a synth not a guitar
C#|---------------------------------------------------------------------------|
G#|---------------------------------------------------------------------------|
 E|---------5-----------------------------------------------------------------|
 B|---3---3-------------------------------------------------------------------|
F#|-6---6-----1-3-------------------------------------------------------------|
C#|---------------4-----------------------------------------------------------|
 Or something like that  This plays almost the entire song

Verse Cello Riff Its in the background and quiet play 1 time for the end part of the 
then play 2x for 1st verse
C#|------------------------------------------------------------------------------|
G#|------------------------------------------------------------------------------|
 E|------------------------------------------------------------------------------|
 B|-------1~---------------------------------------------------------------------|
F#|----------1~~-3~--------------------------------------------------------------|
C#|-1~-4~------------------------------------------------------------------------|

Chorus Effects Riff play 4x for 1st Chorus
C#|---------------------------------------------------------------------------|
G#|---------------------------------------------------------------------------|
 E|-6-6---------5-------------------------------------------------------------|
 B|-6-6-6--3-3--5-------------------------------------------------------------|
F#|-4-4-6--3-3--3-------------------------------------------------------------|
C#|-----4--1-1----------------------------------------------------------------|

Chorus Gtr. 1 (Clean w/Very Fast Phaser) Listen for it I guarantee its there
C#|---------------------------------------------------------------------------|
G#|-4-------4-------4--------4------------------------------------------------|
 E|---------------------------------------------------------------------------|
 B|---------------------------------------------------------------------------|
F#|---------------------------------------------------------------------------|
C#|---------------------------------------------------------------------------|

Piano Riff following 1st Chorus notes above
C#|-G----D--F--C--G--D-G----D--F--C--G--A-------------------------------------|
G#|-11~--6~-9~-4~------11~--6~-9~-4~------------------------------------------|
 E|---------------3~-----------------3~-5~------------------------------------|
 B|------------------3~-------------------------------------------------------|
F#|---------------------------------------------------------------------------|
C#|---------------------------------------------------------------------------|

Cello plays its verse riff once during the Piano part then plays it 2 more times for 2nd Verse

Then repeat Chorus

Bridge Violins 3 & 4 play 4x
C#|-1-4-6-13~-4-6-13-8-1-6-1-8-9-8-9-8-9-8-9-8-9-8----------------------------|
G#|---------------------------------------------------------------------------|
 E|---------------------------------------------------------------------------|
 B|---------------------------------------------------------------------------|
F#|---------------------------------------------------------------------------|
C#|---------------------------------------------------------------------------|

Bridge Cellos 1 & 2 (play with violins) play 4x
C#|---------------------------------------------------------------------------|
G#|---------------------------------------------------------------------------|
 E|---------------------------------------------------------------------------|
 B|---------------------------------------------------------------------------|
F#|---------------------------------------------------------------------------|
C#|--13~------4-6-13-8-1-6-1-8-9-8-9-8-9-8-9-8-9-8-1-4-6----------------------|

Bridge Cellos 3 & 4 (come in halfway through bridge)
C#|---------------------------------------------------------------------------|
G#|---------------------------------------------------------------------------|
 E|---------------------------------------------------------------------------|
 B|---------------------------------------------------------------------------|
F#|-3/8~~-11~\6~~----3/8~~-11~\6~~--3~~~--------------------------------------|
C#|---------------------------------------------------------------------------|

Chorus 3 Gtr. 2 (Distorted + EBOW) play 4x for 3rd Chorus then play 4x for Post-Chorus
C#|---------------------------------------------------------------------------|
G#|---------------------------------------------------------------------------|
 E|---------------------------------------------------------------------------|
 B|---------------------------------------------------------------------------|
F#|-4~~~/11~\8~~/15b15.3~~\---------------------------------------------------|
C#|---------------------------------------------------------------------------|

Outro Piano Right Hand
C#|-------20------------------20--------------------------------------------------|
G#|-16-18---------------16-18(21)(8th time only)-(after 12th time end on 16)------|
 E|----------15-17-13------------15-17-10-----------------------------------------|
 B|-------------------------------------------------------------------------------|
F#|-------------------------------------------------------------------------------|
C#|-------------------------------------------------------------------------------|
Left Hand                                                                    play all 12x
C#|---------------------------------------------------------------------------|
G#|---------------------------------------------------------------------------|
 E|-15-10-13-8-3--------------------------------------------------------------|
 B|---------------------------------------------------------------------------|
F#|---------------------------------------------------------------------------|
C#|---------------------------------------------------------------------------|

Outro Gtr. 1 (Distorted) (This is INCREDIBLY FAINT even if you sit down for 10 minutes 
try to listen for this you will probably NOT hear it) this is tremolo picked also and 
throughout the Outro until it finally hits and the song ends
C#|-20b21b21.5b22b22.5b23b23.5r23r22.5r22r21.5r21r20--------------------------|
G#|---------------------------------------------------------------------------|
 E|---------------------------------------------------------------------------|
 B|---------------------------------------------------------------------------|
F#|---------------------------------------------------------------------------|
C#|---------------------------------------------------------------------------|

Outro Violins 1 & 2 (quietly) play this note until piano has played its riff 1 and ½ times
C#|---------------------------------------------------------------------------|
G#|-13~~~~~~~~~~~-------------------------------------------------------------|
 E|---------------------------------------------------------------------------|
 B|---------------------------------------------------------------------------|
F#|---------------------------------------------------------------------------|
C#|---------------------------------------------------------------------------|
Then play this until it finishes the 2nd time through the riff                 play all 6x
C#|---------------------------------------------------------------------------|
G#|-11~~~~~-------------------------------------------------------------------|
 E|---------------------------------------------------------------------------|
 B|---------------------------------------------------------------------------|
F#|---------------------------------------------------------------------------|
C#|---------------------------------------------------------------------------|

Outro Violins 3 & 4 play 4x towards the end of the Outro
C#|-1-4-6-13~-4-6-13-8-1-6-1-8-9-8-9-8-9-8-9-8-9-8----------------------------|
G#|---------------------------------------------------------------------------|
 E|---------------------------------------------------------------------------|
 B|---------------------------------------------------------------------------|
F#|---------------------------------------------------------------------------|
C#|---------------------------------------------------------------------------|

Outro Cello 1 play this note for the entire Outro
C#|---------------------------------------------------------------------------|
G#|---------------------------------------------------------------------------|
 E|---------------------------------------------------------------------------|
 B|-3~~~~~~~~~~~~~~~~~~~~~----------------------------------------------------|
F#|---------------------------------------------------------------------------|
C#|---------------------------------------------------------------------------|

Outro Cello 2 play this note until piano plays its riff 1 and ½ times
C#|---------------------------------------------------------------------------|
G#|---------------------------------------------------------------------------|
 E|---------------------------------------------------------------------------|
 B|-3~~~~~~~~~----------------------------------------------------------------|
F#|---------------------------------------------------------------------------|
C#|---------------------------------------------------------------------------|
Then play this for the rest of the 2nd time through the piano riff            play this 6x
C#|---------------------------------------------------------------------------|
G#|---------------------------------------------------------------------------|
 E|---------------------------------------------------------------------------|
 B|-8~~~~~~-------------------------------------------------------------------|
F#|---------------------------------------------------------------------------|
C#|---------------------------------------------------------------------------|

Outro Cellos 3 & 4 play 4x
C#|---------------------------------------------------------------------------|
G#|---------------------------------------------------------------------------|
 E|---------------------------------------------------------------------------|
 B|---------------------------------------------------------------------------|
F#|---------------------------------------------------------------------------|
C#|--13~------4-6-13-8-1-6-1-8-9-8-9-8-9-8-9-8-9-8-1-4-6----------------------|

Outro Bell Pt. 1  play 12x  The / slide ups are runs up the keys
C#|-13/20-13/23-13/20-18--13/20-13/23-21-20-18--------------------------------|
G#|---------------------------------------------------------------------------|
 E|---------------------------------------------------------------------------|
 B|---------------------------------------------------------------------------|
F#|---------------------------------------------------------------------------|
C#|---------------------------------------------------------------------------|

End on
C#|25|

Outro Bell Pt. 2 play 64x (I think)
C#|-27-25-20------------------------------------------------------------------|
G#|---------------------------------------------------------------------------|
 E|---------------------------------------------------------------------------|
 B|---------------------------------------------------------------------------|
F#|---------------------------------------------------------------------------|
C#|---------------------------------------------------------------------------|

End On
C#|27|

Ending Violin 1 (Solo) (bring out)
C#|-13~/15~-15~/16~~~~--------------------------------------------------------|
G#|---------------------------------------------------------------------------|
 E|---------------------------------------------------------------------------|
 B|---------------------------------------------------------------------------|
F#|---------------------------------------------------------------------------|
C#|---------------------------------------------------------------------------|

Ending Violins 2,3, & 4 (quietly)
C#|-1~~~~~~~~~----------------------------------------------------------------|
G#|---------------------------------------------------------------------------|
 E|---------------------------------------------------------------------------|
 B|---------------------------------------------------------------------------|
F#|---------------------------------------------------------------------------|
C#|---------------------------------------------------------------------------|

Ending Cellos 1 & 2
C#|---------------------------------------------------------------------------|
G#|---------------------------------------------------------------------------|
 E|---------------------------------------------------------------------------|
 B|-3~~~~~~~~~~---------------------------------------------------------------|
F#|---------------------------------------------------------------------------|
C#|---------------------------------------------------------------------------|

The End

Enjoy if you actually have a violin or bells... lol
Please Rate!

| /  slide up
| \  slide down
| h  hammer-on
| p  pull-off
| ~  vibrato
| +  harmonic
| x  Mute note
===============================================================================
Добавлено: 18.07.2013
Другие материалы по этой песне:
  • Аккорды и текст

Страница создана 18.07.2013
http://primanota.ru/black-light-burns/new-hunger-chords.htm
Привет, Гость.
Предлагаем пройти революционный курс по гитаре.
Подарок от PrimaNota.Ru, забирай!