PrimaNota.ru - самый крупный в мире бесплатный архив песенных текстов, аккордов, табулатур и нот


Black Light Burns - Lie - текст песни, таба, бас-таба, видео

Регистрация Запомнить меня
Войти через:  Facebook Google Twitter Vk Yandex Mail.ru

Black Light Burns - Lie - текст песни, таба, бас-таба, видео

Печатать
Просмотров: 276
Авторы музыки: Wes Borland

 "Lie" by Black Light Burns,
 from "Cruel Melody"

 tabbed by MafiaMaster (bourrindercii@gmail.com)


tuning : low to high: C# F# B E G# C# (standard Wes Borland)

 Pre-Chorus 

#Gtr1 (light distortion)

the first time:
-----------------------------------|
-----------------------------------|
-----------------------------------|
-----------------------------------|
-----------------------------------|
-0-3-3-3-3-5-5-5-5-6-6-6-6-5-5-5-5-| 


then the second time:
  ---------------------------------|
  ---------------------------------|
  ---------------------------------|
  ---------------------------------|
  ---------------------------------|
  -3-3-3-3-5-5-5-5-6-6-6-6-5-5-5-5-|


#Gtr2 (heavy distortion)

on the second time:
  ---------------------------------|
  ---------------------------------|
  ---------------------------5-5-5-|
  ---------------------------5-5-5-|
  ---------------------------3-3-3-|
  ---------------------------------|

 Chorus (heavy distortion)

---------------------|
---------------------|
-5555-7777-8888-7777-|
-5555-7777-8888-7777-|
-3333-5555-6666-5555-|
---------------------|

 Pre-solo

-----------------------------------------------------|
-----------------------------------------------------|
-----------------------------------------------------|
-----------------------------------------------------|
-------5b--5h4---------------------------------------|
-0-3-0---0----0-3-0-2-0-2-3-2-0-2b-0-0--0-2-0-2b-0-0-|

 Solo
                                                       +++++++++++  
-------------------------------------------------------------------|
-------------------------------------------14-15-16-17-17-16-15-14-|
-0-7h8---0-7h8----0-7h8-7------------------------------------------|
-------8-------10---------10-10-10-8-8-7---------------------------|
-------------------------------------------------------------------|
-------------------------------------------------------------------|

+ : tremolo picking (very fast picking)
b : bend (1/2)

structure of the song:

intro (no guitar)
verse (no guitar)
pre-chorus
chorus
verse
pre-chorus
chorus
Pre-solo
Solo
chorus
Добавлено: 01.08.2013
Другие материалы по этой песне:
  • Аккорды и текст

Страница создана 01.08.2013
http://primanota.ru/black-light-burns/lie-chords.htm
Привет, Гость.
Предлагаем пройти революционный курс по гитаре.
Подарок от PrimaNota.Ru, забирай!