PrimaNota.ru - самый крупный в мире бесплатный архив песенных текстов, аккордов, табулатур и нот


Black Light Burns - Giving In Again - таба, видео

Регистрация Запомнить меня
Войти через:  Facebook Google Twitter Vk Yandex Mail.ru

Black Light Burns - Giving In Again - таба, видео

Печатать
Просмотров: 115
Уроки эстрадного вокала в Санкт-Петербурге
-------------------------------------------------------------------------------
			                 Giving In Again - Black Light Burns
-------------------------------------------------------------------------------
Tabbed by: Austin (A Dead Fly)
Email: azlizard13@yahoo.com

Tuning: Standard

This is my favorite track off of the Cover Your Heart album by Black
Light Burns.

Since there is only one guitar riff throughout the whole song I have
also included the main synthesizer and the bass.

Distortion Guitar
Play the song with Echo, if you can't play it with echo then I've
labeled another way to play it that makes it sound good.

With Echo
e|---------------|----------------|---------------|----------------|
B|---------------|----------------|---------------|----------------|
G|-----9---------|----------------|-----9---------|----------------|
D|---------------|--10-----9--9\5-|---------------|--10------------|
A|-7-------------|------------X-X-|-7-------------|----------------|
E|-------------8-|------7-----7\3-|-------------8-|------7---------|

e|---------------|----------------|---------------|----------------|
B|---------------|----------------|---------------|----------------|
G|-----9---------|----------------|-----9---------|-------------12\|
D|---------------|--10-----9--9\5-|---------------|--10------------|
A|-7-------------|------------X-X-|-7-------------|----------------|
E|-------------8-|------7-----7\3-|-------------8-|------7---------|

Without Echo

e|---------------|----------------|---------------|----------------|
B|---------------|----------------|---------------|----------------|
G|----9--9--9----|----------------|----9--9--9----|----------------|
D|---------------|--10-----9--9\5-|---------------|--10------------|
A|-7-------------|------------X-X-|-7-------------|----------------|
E|-------------8-|------7-----7\3-|-------------8-|------7---7---7-|

e|---------------|----------------|---------------|----------------|
B|---------------|----------------|---------------|----------------|
G|----9--9--9----|----------------|----9--9--9----|-------------12\|
D|---------------|--10-----9--9\5-|---------------|--10------------|
A|-7-------------|------------X-X-|-7-------------|----------------|
E|-------------8-|------7-----7\3-|-------------8-|------7---7-----|

For the outro
Play this four times and fade out while playing it

e|---------------|----------------|
B|---------------|----------------|
G|-----9---------|----------------|
D|---------------|--10-----9--9\5-|
A|-7-------------|------------X-X-|
E|-------------8-|------7-----7\3-|


Synthesizer
Plays this riff through most of the song, but goes quiet during
certain parts

e|-------------8-|(8)-------------|-7-----------8-|(8)-------------|
B|-5-------------|----------------|---------------|----------------|
G|---------------|----------------|---------------|----------------|
D|---------------|----------------|---------------|----------------|
A|---------------|----------------|---------------|----------------|
E|---------------|----------------|---------------|----------------|

e|---------------|----------------|---------------|----------------|
B|-10----------8-|(8)-------------|-------------6-|(6)-------------|
G|---------------|----------------|-5-------------|----------------|
D|---------------|----------------|---------------|----------------|
A|---------------|----------------|---------------|----------------|
E|---------------|----------------|---------------|----------------|

Bass
Palm Mute All Notes

Riff #1


G|---------------|----------------|---------------|----------------|
D|---------------|----------------|---------------|----------------|
A|-7--7----------|----------------|---------------|----------------|
E|---------------|----------------|-7--7----------|----------------|

G|---------------|----------------|---------------|----------------|
D|-7--7----------|----------------|---------------|----------------|
A|---------------|----------------|---------------|----------------|
E|---------------|----------------|-8--8----------|----------------|

Riff #2

G|---------------|----------------|---------------|----------------|
D|---------------|----------------|---------------|----------------|
A|-7--7----------|----------------|---------------|----------------|
E|-------------8-|-8-----7--7---X-|-7--7--------8-|-8-----7--7---X-|

G|---------------|----------------|---------------|----------------|
D|-7--7--------5-|-5-----5--5---X-|---------------|----------------|
A|---------------|----------------|-------------8-|-8-----8--8---X-|
E|---------------|----------------|-8--8----------|----------------|

Riff #3

G|---------------|----------------|---------------|----------------|
D|---------------|-----------9----|---------------|----------------|
A|-7--7----------|-------------10-|-7--7----------|----------------|
E|---------------|----------------|---------------|----------------|

\  - Slide Down
(#)- Let that note ring out
X  - Muted Note

There it is, listen to the song to figure out when the different
bass riffs play or when the synthesizer does or does not play.

Email comments or questions to azlizard13@yahoo.com

Please give me credit if you use this tab for a video.
Добавлено: 28.11.2013
Другие материалы по этой песне:
  • Аккорды и текст

Страница создана 28.11.2013
http://primanota.ru/black-light-burns/giving-in-again-chords.htm
Привет, Гость.
Предлагаем пройти революционный курс по гитаре.
Подарок от PrimaNota.Ru, забирай!