PrimaNota.ru - самый крупный в мире бесплатный архив песенных текстов, аккордов, табулатур и нот


Black Light Burns - Coward - текст песни, таба, видео

Регистрация Запомнить меня
Войти через:  Facebook Google Twitter Vk Yandex Mail.ru

Black Light Burns - Coward - текст песни, таба, видео

Печатать
Просмотров: 189
Авторы музыки: Wes Borland

Black Light Burns
Coward
tuning [from low to high] B F# B E G# C#

this tab is my first. it is not full, I can't figured out solo part and pre chorus part

intro
C#||----------------------------------------------------------------|
G#||----------------------------------------------------------------|
E ||----------------------------------------------------------------| X 4
B ||----------------------------------------------------------------|
F#||--------7------------7------------7-----------------------------|
B ||--0-2-0----0-2-5-2-0----0-2-3-2-0----0-2-0--0--1----------------|


verse [i'm not sure the las part of this]
C#||----------------------------------------------------------------|
G#||----------------------------------------------------------------|
E ||------11---------14----------9-------(9)------------------------|
B ||----9----9-----12---12-----7---7---(7)--(7)/9-------------------| X 4
F#||--7---------10-----------5-------(5)----------------------------|
B ||----------------------------------------------------------------|

pre chorus [can't figured it out]

chorus
C#||----------------------------------------------------------------|
G#||----------------------------------------------------------------|
E ||----------------------------------------------------------------| X 4
B ||----------------------------------------------------------------|
F#||----------------------------------------------------------------|
B ||2-2-2-2-2-2-2-2-5-5-5-5-5-5-5-5-0-0-0-0-0-0-0-0-0-0-0-0-0-0-0-0-|

solo [can't figured it out]

verse [i'm not sure the las part of this]
C#||----------------------------------------------------------------|
G#||----------------------------------------------------------------|
E ||------11---------14----------9-------(9)------------------------| X 4
B ||----9----9-----12---12-----7---7---(7)--(7)/9-------------------|
F#||--7---------10-----------5-------(5)----------------------------|
B ||----------------------------------------------------------------|

pre chorus [can't figured it out]

chorus
C#||----------------------------------------------------------------|
G#||----------------------------------------------------------------|
E ||----------------------------------------------------------------| X 4
B ||----------------------------------------------------------------|
F#||----------------------------------------------------------------|
B ||2-2-2-2-2-2-2-2-5-5-5-5-5-5-5-5-0-0-0-0-0-0-0-0-0-0-0-0-0-0-0-0-|

bridge - this are only chords you must use in this order but you must figured out 
this chords with many "palm mutes".
C#||----------------------------------------------------------------|
G#||----------------------------------------------------------------|
E ||-9-12-7-9-------------------------------------------------------| X 8
B ||-9-12-7-9-------------------------------------------------------|
F#||-7-10-5-7-------------------------------------------------------|
B ||----------------------------------------------------------------|

pre chorus [can't figured it out]

chorus
C#||----------------------------------------------------------------|
G#||----------------------------------------------------------------|
E ||----------------------------------------------------------------| X 4
B ||----------------------------------------------------------------|
F#||----------------------------------------------------------------|
B ||2-2-2-2-2-2-2-2-5-5-5-5-5-5-5-5-0-0-0-0-0-0-0-0-0-0-0-0-0-0-0-0-|


outro
C#||----------------------------------------------------------------|
G#||----------------------------------------------------------------|
E ||----------------------------------------------------------------|
B ||----------------------------------------------------------------|
F#||--------7------------7------------7-----------------------------|
B ||--0-2-0----0-2-5-2-0----0-2-3-2-0----0-2-0--0--1----------------|

tabbed by BIGBIZKIT
Добавлено: 17.11.2013
Другие материалы по этой песне:
  • Аккорды и текст

Страница создана 17.11.2013
http://primanota.ru/black-light-burns/coward-chords.htm
Привет, Гость.
Предлагаем пройти революционный курс по гитаре.
Подарок от PrimaNota.Ru, забирай!