PrimaNota.ru - самый крупный в мире бесплатный архив песенных текстов, аккордов, табулатур и нот


Black Label Society - In This River Live - аккорды и текст, таба, бас-таба, видео

Регистрация Запомнить меня
Войти через:  Facebook Google Twitter Vk Yandex Mail.ru

Black Label Society - In This River Live - аккорды и текст, таба, бас-таба, видео

Печатать
Просмотров: 231
In This River Live
Black Label Society


When Zakk Wylde performs this song live he would
usually be tuned down a full step. So I will show you the
live and CD version chords in both standard and full step
down tunings (just for the convenience).

Live Version (tuned down a full step)
E]--3----0---3---2-]
B]--5----1---0---3-]
G]--4----0---0---2-] Repeat
D]--2----2---0---0-]
A]-------3---2-----]  Play solo in E pentatonic
E]-----------3-----]
   Dm    C   G   D

Live Version (standard tuning)
E]--1---1---1---0-]
B]--3---3---1---1-]
G]--2---3---2---0-] Repeat
D]--0---3---3---2-]
A]------1---3---3-]  Play solo in D pentatonic
E]----------1-----]
    D   A#  F   C

CD Version (standard tuning)
E]--0---0---3---2-]
B]--0---1---0---3-]
G]--0---0---0---2-] Repeat
D]--2---2---0---0-]
A]--2---3---2-----]  Play solo in Em pentatonic
E]--0-------3-----]
    Em  C   G   D

CD Version (full step down tuning)
E]--5----2---0---0-]
B]--7----3---2---0-]
G]--6----2---2---1-] Repeat
D]--4----0---2---2-]
A]-----------0---2-]  Play solo in F# pentatonic
E]---------------0-]
    Fm#  D   A   E

If you have any questions then just email me at mtran07@gmail.com

Добавлено: 19.02.2014
Другие материалы по этой песне:

Страница создана 30.04.2012
http://primanota.ru/black-label-society/in-this-river-live-chords.htm
Привет, Гость.
Предлагаем пройти революционный курс по гитаре.
Подарок от PrimaNota.Ru, забирай!