PrimaNota.ru - самый крупный в мире бесплатный архив песенных текстов, аккордов, табулатур и нот


Black Label Society - Hey You Batch Of Lies - текст песни, таба, видео

Регистрация Запомнить меня
Войти через:  Facebook Google Twitter Vk Yandex Mail.ru

Black Label Society - Hey You Batch Of Lies - текст песни, таба, видео

Печатать
Просмотров: 229
Legend:
PM=palm mute
PH=pinch harmonic
/ =slide up
\ =slide down

tuning: Drop D

Intro:
E|--------------------------------------------------------|
B|--------------------------------------------------------|
G|--------------------------------------------------------|
D|--------------------------------------------------------|
A|-0---2--3------------------------------------------5--3-|
D|-0---2--3---5^(6)(5)-3---5^(6)(5)-3---5^(6)(5)-3---5--3-|
                bend up to 6 and down to 5

----------------------------------------------------]2X ---|
----------------------------------------------------]   ---|
----------------------------------------------------]   ---|
----------------------------------------------------]   0--|
--0-0-0-0-0-2--3--3h5-5-5---5/6-6-6-6\5-------------]   0--|
--0-0-0-0-0-2--3--3h5-5-5---5/6-6-6-6\5-------------]   0--|
PM .......

main part
------1--------3/5\3-----0--------3------1---------|
----3--3------3-----------1--------3------1--------|
--2-----2----2---------0---0---------------2-------|
-0--------0-3---------2-----2----------------------|
---------------------3-----------------------------|
------------------------------3/5-----3------------|


-----1-----3/5\3-----0-------3---------------------|
----3-3---3-----------1------3---------------------|
---2---2-2---------0---0-----4---------------------|
--0-----3---------2-----2--------------------------|
-----------------3-----------5---------------------|
-0---------------------------5---------------------|
                              let ring

------1--------3/5\3-----0--------3------1---------|
----3--3------3-----------1--------3------1--------|
--2-----2----2---------0---0---------------2-------|
-0--------0-3---------2-----2----------------------|
---------------------3-----------------------------|
------------------------------3/5-----3------------|


-----1-----3/5\3----------------------]
----3-3---3---------------------------]
---2---2-2---------5-5-5-5-5-5-5-5-5--]
--0-----3----------5-5-5-5-5-5-5-5-5--]
-------------------3-3-3-3-3-3-3-3-3--]
-0------------------------------------]
                   PM …………………………


Chorus 2X


fill
--10-10-----7---8-7-8-7--|
--8--8---6--6---6---6----|
--7--7--7---7------------|
--0--0-----0-------------|
-------------------------|
-------------------------|


main part,

chorus 2X

play solo over these notes (a pentatonic)
----------------|
----------------|
----------------|
---7---5---3----|
---7---5---3----|
---7---5---3----|


--1p0
--3--
--2--
--0--
-----
-----

Transcribed by: occ(zwbls_29)
Email: turney29@netscape.net

this is the solo for the song;  no guarantees on closeness of
the transcription(in fact i guarantee its not exact);  put in
vibrato and wah in the right places;  this is tabbed in
DADGBE;
some might be confusing, email me with questions

-------------------------|------------------|---------------------------|----|
-------------------------|------------------|---------------------13----|----|
--9-9b-------------------|------------------|--------------/13-14----14-|----|
-------12br-12p10--------|---------10-11-12-|--------10-----------------|----|
-------------------------|10-11-12----------|-/11-12----12--------------|----|
----------------------17\|------------------|---------------------------|----|
                 ~~~                           |play this 2.5 times----------|

----------------------------------------------------------------------------|
-13br-------------------15/17-13----------15/17-13--------------------------|
----------------------------------------------------------------------------|
------14br-----12/14-10----------12/14-10------------12/14-10---------------|
----------------------------------------------------------------------------|
----------------------------------------------------------------------------|
             ~~~

-----------------------------------------------------------------------------|
---------------------17-19-20-19-17-22-20-19-17-19-20-22-20-19-17------------|
-17br-19b--19\----19---------------------------------------------------------|
-----------------------------------------------------------------------------|
-----------------------------------------------------------------------------|
-----------------------------------------------------------------------------|
                       |-------------- This is the fast part played apprx----| 3x

-20---------19------17-----17-----17-----17------17-----17---------17--------|
------------------------------20b----20b----20b-----20b----20b--------20b----|
-----------------------------------------------------------------------------|
-----------------------------------------------------------------------------|
-----------------------------------------------------------------------------|
-----------------------------------------------------------------------------|
   |-------------------------------------------------------------------------|tremelo pick

--17-20-19-17---------------------------------------------------------------|
--------------20-19-17------------------------------------------------------|
------------------------19-17-----------------------------------------------|
-------------------------------19-17----------------------------------------|
----------------------------------------------------------------------------|
--------------------------------------17------------------------------------|
                                       ~~~ A.H.
Добавлено: 30.04.2012
Другие материалы по этой песне:
  • Аккорды и текст

Страница создана 08.04.2012
http://primanota.ru/black-label-society/hey-you-batch-of-lies-chords.htm
Привет, Гость.
Предлагаем пройти революционный курс по гитаре.
Подарок от PrimaNota.Ru, забирай!