PrimaNota.ru - самый крупный в мире бесплатный архив песенных текстов, аккордов, табулатур и нот


Black Label Society - Born To Lose (feat. Zakk Wylde) - текст песни, таба, бас-таба, видео

Регистрация Запомнить меня
Войти через:  Facebook Google Twitter Vk Yandex Mail.ru

Black Label Society - Born To Lose (feat. Zakk Wylde) - текст песни, таба, бас-таба, видео

Печатать
Просмотров: 179
Author/Artist: Black Label Society
Title: Born To Lose
Album: Sonic Brew
Tabbed by: Sqweeky


Standard tuning

---------------------------------|--------------------------------------------
---------------------------------|--------------------------------------------
---------------------------------|--------------------------------------------
---------------------------------|-----------------------------5h7p5----------
-5-h-7--5-h-7-----5--------------|--5-h-7--5-h-7-----------5---------7-p-5----
-0------0-------x----7-6-0-5-3---|--0------0-------x-5---7---7----------------
 main riff (guitar doubled by distorted bass)

------------------------------------------------------------------------------
------------------------------------------------------------------------------
-14fb-14fb-14fb-14fb------12-14-14fb-12---------------------------------------
----------------------------------------14~-----------------------------------
------------------------------------------------------------------------------
------------------------------------------------------------------------------
 fill (w/main riff)

-----------------------------------------------------------------------------
-----------------------------------------------------------------------------
-----------------5-----------------5-----5-------------------------5---------
-----------------5-----------------5-----5-------------------4--5--5---------
-5-h-7-----------3-----------------3-----3---5-h-7------5h7--------3---------
-0-------0-----------------------------------0------0------------------------
"Jesus....       hell yeah    what do we do?            what do we do?
 chorus riff

-----------------------------------------------------------------------------
-----------------------------------------------------------------------------
----------------------------------5-----------5----5-------------------------
----------------------------------5-----------5----5-----9-----8-----7-----5-
-----5---5-h-7--------------------3-----------3----3-------------------------
-7-------0-------0------------------------------------7-----6-----5-----3----
        "Jesus     can you hear.. screaming...Lord,I
 chorus riff (con't.)

-----------------------------------------------------------------------------
-----------------------------------------------------------------------------
-----------------------------------------------------------------------------
-------------------------------------------------------------7h8h7--5--------
-5-h-7--7--7-p-5-----5-h-7--7--7-p-5-----5-h-7--7--7-p-5---------------7--5--
------------------7-------------------7-------------------7------------------
 bridge riff

----------------------|-----------------------|------------------------------
----------------------|-----------------------|------------------------------
----------------------|-----------------------|------------------------------
----9-----8-----7-----|-----9-----8-----7-----|-----9-----8------------------
----------------------|-----------------------|------------------------------
-7-----6-----5-----3--|--7-----6-----5-----3--|--7-----6-----5---------------
Добавлено: 22.08.2013
Другие материалы по этой песне:

Страница создана 08.03.2012
http://primanota.ru/black-label-society/born-to-lose-chords.htm
Привет, Гость.
Предлагаем пройти революционный курс по гитаре.
Подарок от PrimaNota.Ru, забирай!