PrimaNota.ru - самый крупный в мире бесплатный архив песенных текстов, аккордов, табулатур и нот


Black Label Society - Battering Ram (feat. Zakk Wylde) - текст песни, таба, бас-таба, видео

Регистрация Запомнить меня
Войти через:  Facebook Google Twitter Vk Yandex Mail.ru

Black Label Society - Battering Ram (feat. Zakk Wylde) - текст песни, таба, бас-таба, видео

Печатать
Просмотров: 153
   Q=171
   4/4
    Gtr I
     S  S  S  S  S  S  S  S  S  S  S  S  S  S  S  S
||-----16----16-------------------------------------|
||o-15----18----15-18-16-15----16-15-18-16-15--16-|
||--------------------------17----------------17----|
||--------------------------------------------------|
||o-------------------------------------------------|
||--------------------------------------------------|


   S  S  S  S  S  S  S  S  S  S  S  S  S  S  S  S  4x
|--------------------------------------------------||
|-15-18----15-13-16-------------------------------o||
|-------------------14-17-------------14-17-14-17-||
|-------17----------------15-18-15-18--------------||
|-------------------------------------------------o||
|--------------------------------------------------||


              |-3-|       |-3-|         |-3-|
   S    S S S T T T S S S S S S   S S S T T T S S S
|-(1)-|-2-3-4-5p4p3p2-3-2-3p2p1-|-2-3-4-5p4p3p2-3-2-|
|-----|-------------------------|-------------------|
|-----|-------------------------|-------------------|
|-----|-------------------------|-------------------|
|-----|-------------------------|-------------------|
|-----|-------------------------|-------------------|


        |-3-| |--4--|         |-3-|
  S S S T T T S S S S   S S S T T T S S S
|-3-4-5-6p5p4-3-4-3-2-|-3-4-5-6p5p4-3-4-3---|
|---------------------|---------------------|
|---------------------|---------------------|
|---------------------|---------------------|
|---------------------|---------------------|
|---------------------|---------------------|


        |-3-| |--4--|         |-3-|
  S S S T T T S S S S   S S S T T T S S S
|-4-5-6-7p6p5-4-5-4-3-|-4-5-6-7p6p5-4-5-4-|
|---------------------|-------------------|
|---------------------|-------------------|
|---------------------|-------------------|
|---------------------|-------------------|
|---------------------|-------------------|


        |-3-| |--4--|         |-3-|
  S S S T T T S S S S   S S S T T T S S S
|-5-6-7-8p7p6-5-6-5-4-|-5-6-7-8p7p6-5-6-5-|
|---------------------|-------------------|
|---------------------|-------------------|
|---------------------|-------------------|
|---------------------|-------------------|
|---------------------|-------------------|


        |-3-| |--4--|         |-3-|
  S S S T T T S S S S   S S S T T T S S S
|-6-7-8-9p8p7-6-7-6-5-|-6-7-8-9p8p7-6-7-6-|
|---------------------|-------------------|
|---------------------|-------------------|
|---------------------|-------------------|
|---------------------|-------------------|
|---------------------|-------------------|


         |-3-| |--4--|          |-3-|
  S S S  T T T S S S S   S S S  T T T S S S
|-7-8-9-10p9p8-7-8-7-6-|-7-8-9-10p9p8-7-8-7-|
|----------------------|--------------------|
|----------------------|--------------------|
|----------------------|--------------------|
|----------------------|--------------------|
|----------------------|--------------------|


          |-3--| |--4--|           |-3--|
  S S  S  T  T T S S S S   S S  S  T  T T S S S
|-8-9-10-11p10p9-8-9-8-7-|-8-9-10-11p10p9-8-9-8-|
|------------------------|----------------------|
|------------------------|----------------------|
|------------------------|----------------------|
|------------------------|----------------------|
|------------------------|----------------------|


 (A garbled mess:)
                        TP  TP
  S S S S  S  S  S  S   E   E
|-x-x-x-x-/x-/x-/x-/x-|-xS==x----|
|---------------------|----------|
|---------------------|----------|
|---------------------|----------|
|---------------------|----------|
|---------------------|----------|
Добавлено: 04.12.2013
Другие материалы по этой песне:

Страница создана 17.03.2012
http://primanota.ru/black-label-society/battering-ram-chords.htm
Привет, Гость.
Предлагаем пройти революционный курс по гитаре.
Подарок от PrimaNota.Ru, забирай!