PrimaNota.ru - самый крупный в мире бесплатный архив песенных текстов, аккордов, табулатур и нот


Black Label Society - 1919 Eternal - таба, видео

Регистрация Запомнить меня
Войти через:  Facebook Google Twitter Vk Yandex Mail.ru

Black Label Society - 1919 Eternal - таба, видео

Печатать
Просмотров: 164
Bleed For Me

Dropped C tuning: C G C F A D

|----------------------------------------------------------------------|
|----------------------------------------------------------------------|
|----------------------------------------------------------------------|
|----------------------------------------------------------------------|
|-----------------------------------------------------3-5-3---3--------|
|-3-0-0-0-0-0-0-0---3-0-0-0-0-0-0-0--3-0-0-0-0-0-0-0--------6---6-5-3--|

|--------------------------------------------------------------|
|--------------------------------------------------------------|
|--------------------------------------------------------------|
|--------------------------------------------------3-----------|
|-3-0000000---3-0000000---3-0000000---3-0000000----3-----------|
|-3-0000000---3-0000000---3-0000000---3-0000000----3-----------|

This grave of life I give to you...
|---------------------------------------------------------------|
|---------------------------------------------------------------|
|---------------------------------------------------------------|
|-3-0-0--5-0-0--3-0-0--6-0-0-----5/6-5/6------------------------|
|-3-0-0--5-0-0--3-0-0--6-0-0------------------------------------|
|-3-0-0--5-0-0--3-0-0--6-0-0-----5/6-5/6------------------------|

chorus
Guitar 1
|--------------------------------|-------------------------------|
|--------------------------------|-------------------------------|
|-------12---10----9/10---9\5----|-----12--10--9/10--9/5--3------|
|--7-----------------------------|-7-----------------------------|
|--5---------------------------0-|-5-----------------------------|
|--0----10---8-----7/8----7\3--0-|-0---10--8---7/8---7/3--1------|

Guitar 2
Bleed for me, I bled for you
|-----------------------------|-------------------------------|
|-----------------------------|-------------------------------|
|--7--5-3---------------------|--7--5-3-----------------------|
|--7--5-3---2-3-2-------------|--7--5-3---3-2-3-2-------------|
|--5--3-1---------3-1---------|--5--3-1------------3-1--------|
|--0--------------------------|--0----------------------------|

solo - repeat 5x
|--------------------------------------------------------------|
|-----------------------10-12-13-10-12-13----------------------|
|10-12-13-10-12-13---------------------------------------------|
|--------------------------------------------------------------|
|--------------------------------------------------------------|
|--------------------------------------------------------------|

6th time play                            full   1/2  full
|-----------------------------------------------------------10--|
|---------------------10-12-13-10---------13^--13^--13^---------|
|--10-12-13-10-12-13--------------10---10-----------------------|
|---------------------------------------------------------------|
|---------------------------------------------------------------|
|---------------------------------------------------------------|

repeat 3x
|--15-13-10-15-13-10--------------------------------------------|
|---------------------13-12-10-13-12-10-------------------------|
|----------------------------------------13-12-10-13-12-10------|
|-----------------------------------------------------------12~~|
|---------------------------------------------------------------|
|---------------------------------------------------------------|

  full           1/2
|-------------------------------10----10-13-10-15----13----12----10--|
|---------------12^--12--10--10----10-------------10----10----10-----|
|-12^---10~--10------------------------------------------------------|
|--------------------------------------------------------------------|
|--------------------------------------------------------------------|
|--------------------------------------------------------------------|

  full          full         full     full        hammer on/off
|----------------------------------------------------------------------------------|
|----------------------------------------------------------------------------------|
|--15^--12-10---17^--12-10--15^--12-10-12^--15-12-15-12-15-12-15-12-15-12-15-12-15-|
|----------------------------------------------------------------------------------|
|----------------------------------------------------------------------------------|
|----------------------------------------------------------------------------------|

                    full
|---------------------------------------------------------------|
|---------------------------------------------------------------|
|-12-10----10-10-10-12^--10~~~~---------------------------------|
|-------12------------------------------------------------------|
|---------------------------------------------------------------|
|---------------------------------------------------------------|

Lords Of Destruction

Tuning: A A D G B E

2 Guitars

Guitar 1
e----------------------------------------|
b----------------------------------------|
g----------------------------------------|
d----------------------------------------|
a-0---5--3---0---------------------------|
A-0---5--3---0---------------------------|
repeat

Guitar 2
 1 step
e------|----------------|--------------------|
b--4---|-----4----------|--11----------------|
g--6^--|-----6----------|--14^---------------|
d------|-bend-down-to-6-|--------------------|
a------|----------------|--------------------|
A------|----------------|--------------------|
 1st     2nd time         3rd time

|-------------------------------------------------------------|
|-------------------------------------------------------------|
|---------------------------------5----8----------------------|
|---------------------------------5----8----------------------|
|---------------------------------3----6----------------------|
|-0-0-0-0-0-0-0-0-0---0-0-0-0-----3----6----------------------|

|-------------------------------------------------------------|
|-------------------------------------------------------------|
|--------------------------------8-------3--------------------|
|--------------------------------8-------3--------------------|
|--------------------------------6-------1--------------------|
|-0-0-0-0-0-0-0-0-0---0-0-0-0----6-------1--------------------|

|-------------------------|------------------------------------|
|-------------------------|------------------------------------|
|----------------------8--|-----------------------3------------|
|----------------------8--|-----------------------3------------|
|-0-0-0-0-0-0----------6--|-0-0-0-0-0-0-----------1------------|
|-0-0-0-0-0-0----------6--|-0-0-0-0-0-0-----------1------------|
Chorus
|--------------------------------------------------------------|
|--------------------------------------------------------------|
|---------------------------------15---------------------------|
|---------------------------------15---------------------------|
|-0-0-----------------------------13---------------------------|
|-0-0--12-0-13-0---0-0-12-0-13-0--13---0-12-13-0-13-12-0-0--3^-|

|--------------------------------------------------------------|
|--------------------------------------------------------------|
|----------------------8---------------------------------------|
|----------------------8---------------------------------------|
|----------------------6---------------------------------------|
|-0-0-12-0-13-0--0-0---6---------------------------------------|

Lords Of......
|-------------------------------------------------------------|
|-------------------------------------------------------------|
|-------------------------------------------------------------|
|-0---6--5---3--5--3-------6-5-1------------------------------|
|-0---6--5---3--5--3----0--6-5-1------------------------------|
|-0---6--5---3--5--3----0--6-5-1------------------------------|

Demise Of Sanity

Tuning: C  G  C  F  A  D

     ^ =bend    P= pull off
|---------------------------------------------------------------------------------|
|---------------------------------------------------------------------------------|
|---------------------------------------------------------------------------------|
|---------------------------------------------------------------------------------|
|-0-0---6-5-3-0---0---0--6-5-3-0---0---0--6-5-3-0---0--0--3--0--------------------|
|-0-0---6-5-3-0---0---0--6-5-3-0---0---0--6-5-3-0---0--0--3--0----12p10---12p10---|

where have i gone....                   slide pick
on string and repeat

|-----------------------------------|---5p3-------------5p3----------|
|-----------------------------------|------------5p3------------5p3--|
|-----------------------------------|--------------------------------|
|-2--------------------2------------|--------------------------------|
|-2--------------------2------------|--------------------------------|
|-2----2--3-3^---------------2--3-3^|--------------------------------|
  chorus
|---------------------------------------------------|
|---------------------------------------------------|
|---------------------------------------------------|
|---------------------------------------------------|
|-0-0---1---0--0---1---0-0-----1--666--555--333-----|
|-0-0---1---0--0---1---0-0-----1--666--555--333-----|

 solo
|----------------------------------------------------x2-----|
|-10-----7-10------7-10--------7--------9--7----------------|
|------9----------9------------9------10--------------------|
|-----------------------------------------------------------|
|-----------------------------------------------------------|
|-----------------------------------------------------------|

|-------------------------------------------------------------|
|-12--------9--12--------9---12--------9----12----------9-----|
|-------11------------11-------------11-------------11--------|
|-------------------------------------------------------------|
|-------------------------------------------------------------|
|-------------------------------------------------------------|

|----------------------------------------------------------|
|-14--------11--14-------11--14--------11--14--------11----|
|-------13------------13--------------13-------------13----|
|----------------------------------------------------------|
|----------------------------------------------------------|
|----------------------------------------------------------|

|---------------------------------------------------------|
|-16--------13--16--------13--16--------13--16-------13---|
|-------15-------------15--------------15-------------15--|
|---------------------------------------------------------|
|---------------------------------------------------------|
|---------------------------------------------------------|

|-----------------------------------------------------------|
|-17--------14--17--------14--17--------14--17--------14----|
|-------16-------------16--------------16-------------16----|
|-----------------------------------------------------------|
|-----------------------------------------------------------|
|-----------------------------------------------------------|
            end of song
|--------------------------------------------------------------|-------------------------------|
|-19--------16--19--------16--19--------16--19--------16--22^--|-------------------------------|
|-------18-------------18--------------18-------------18-------|----------------------------3^-|
|--------------------------------------------------------------|-------------------------------|
|--------------------------------------------------------------|-------------------------------|
|--------------------------------------------------------------|-5p3--5p3--5p3--5p3--5p3-------|

Life, Birth, Blood, Doom

tuning- C G C F A D

 Riff A
D-------------------------------------------------------------------------------|
A-------------------------------------------------------------------------------|
F-------------------------------------------------------------------------------|
C-------------------------------------------------------------------------------|
G----0-----------0-----------0-----------0-----------0-----------0-----------0--|
C--0-0---------0-0---------0-0---------0-0---------0-0---------0-0---------0-0--|
   pm.         . .         . .         . .         . .         . .         . .
(pitch shifter used for the Riff A, thats what makes that low 'crack crack' sound)

 Riff B (played over riff a)
D----------------------------------------------------------------|
A----------------------------------------------------------------|
F----0---------------0------2-2------0-------------0------2-2----|
C--0---------------0---------------0-------------0---------------|
G-------3---------------3---------------3-------------3----------|
C----------5^-3----------------------------5^-3------------------|

 Lead
D-----------------------------------------------------------||----------|
A-----------------------------------------------------------||----------|
F-----------------------------------------------------------||----------|
C---10h12p10~~--9h10p9~~---9-10-9---------------------------||----------|
G----------------------------------10\12-12~~--11~-10~-8~---||--5~~~~---|
C-----------------------------------------------------------||----------|

 Riff C-Chorus                   2nd time                 4th time
D------------------------|------------------------|----------------|
A------------------------|------------------------|----------------|
F------------------------|------------------------|----------------|
C--0--5------------------|--0--5------------------|--0--5---10-9---|
G--0--5--5/3-3--3-6-5-3--|--0--5--5/3-3--0-0-0-0--|--0--5---8--7---|
C--0--5--5/3-3--3-6-5-3--|--0--5--5/3-3--0-0-0-0--|--0--5---8--7---|
                pm.....                  .......

 Riff D
D--------------------------------------------------------------------------------|
A--------------------------------------------------------------------------------|
F--------------------------------------------------------------------------------|
C--------------------------------------------------------------------------------|
G--5~~~~~-------------5~~~~~-------------5~~~~~-------------5~~~~~---------------|
C-----------6~~~~~~------------6~~~~~~------------6~~~~~~------------6~~~~~~-----|

solo:
|-10-15-10-15-10----10-------------------------------------------|
|.---------------13----13-10-13-10----10-------------------------|
|----------------------------------13----13-10-13-10--10----13---|
|--------------------------------------------------------12------|
|.---------------------------------------------------------------|
|----------------------------------------------------------------|

-------------------------------10----10-15-10-15----10--|
-------------10----10-13-10-13----13-------------13-----|
-10-13-10-13----13--------------------------------------|
--------------------------------------------------------|
--------------------------------------------------------|
--------------------------------------------------------|
                                              Second Time
-10------------------------------------------|------------|
----13-10-13-10----10----------------------.-|---15~~~----|
----------------13----13-10-13-10----13~~----|------------|
----------------------------------12---------|------------|
-------------------------------------------.-|------------|
---------------------------------------------|------------|

10-13-12-10----10---------------------------------------------------------|
------------13----13-11-10-13-11-10----10-------------12^-----12^-----12^-|
------------------------------------12----12-10-9-12^-----12^-----12^-----|
--------------------------------------------------------------------------|
--------------------------------------------------------------------------|
--------------------------------------------------------------------------|

------10-13-12-10----10----------------------------------|
-10~~-------------13----13-11-10-13-11-10----10----------|
------------------------------------------12----12-10-9--|
---------------------------------------------------------|
---------------------------------------------------------|
---------------------------------------------------------|

----------------------------8----------------------|
--------------------8-10-11---11-10-8--------------|
-------------7-9-10-------------------10-9-7~~~~\--|
-------5-7-8---------------------------------------|
-5-7-8---------------------------------------------|
---------------------------------------------------|

--------------------------------------------------------|
-----------------------------------10-12-13-12-10-------|
-12-12-10-9-9-10\-5-7~~\--10-12-13----------------13~~--|
--------------------------------------------------------|
--------------------------------------------------------|
--------------------------------------------------------|

------------------------------------------------------------|
-------------10-12-13-12-10---------------------------------|
-7\-10-12-13----------------13~~~-7\-12-10-9-9-10-5-7-5~~~--|
------------------------------------------------------------|
------------------------------------------------------------|
------------------------------------------------------------|

Right here, I think Zakk does his weird finger trill/slide number that he does
that leads into the speedy part of the solo:

------------------------------------------------------------------|
------------------------------------------------------------------|
------------------------------------------------------------------|
---------------------------------8-10-12-8-10-12------------------|
-----------------8-10-12-8-10-12-----------------8-10-12-8-10-12--|
-8-10-12-8-10-12--------------------------------------------------|

--------------------------------------------------------|
--------------------------------------------------------|
--------------------------------------------------------|
---------------------------------8-10-12-8-10-12--------|
-----------------8-10-12-8-10-12------------------------|
-8-10-12-8-10-12----------------------------------8~~~--|

------------------------------------------------------------|
------------------------------------------------------------|
-----------------------------9-10-12-9-10-12----------------|
---------------7-8-10-7-8-10-----------------7-8-10-7-8-10--|
-7-8-10-7-8-10----------------------------------------------|
------------------------------------------------------------|

---------------------------------------------------|
---------------------------------------------------|
-----------------------------9-10-12-9-10-12-------|
---------------7-8-10-7-8-10-----------------------|
-7-8-10-7-8-10-------------------------------8~~~--|
---------------------------------------------------|

--------------------------------------------------------------------|
--------------------------------------------------------------------|
---------------------------------10-12-14-10-12-14------------------|
-----------------8-10-12-8-10-12-------------------8-10-12-8-10-12--|
-8-10-12-8-10-12----------------------------------------------------|
--------------------------------------------------------------------|

-------------------------------------------------------|
-------------------------------------------------------|
---------------------------------10-12-14-10-12-14~~~--|
-----------------8-10-12-8-10-12-----------------------|
-8-10-12-8-10-12---------------------------------------|
-------------------------------------------------------|

-----------------------------------------------------|
-----------------------------------------------------|
----------------------------------------------10-----|
----------------------------10----10–12-10-12----12--|
----------10----10-12-10-12----12--------------------|
-15-12-15----15--------------------------------------|

---------------------------------------|
-------------10----10-13-10-13-15~~~~--|
-10-12-10-12----12---------------------|
---------------------------------------|
---------------------------------------|
---------------------------------------|

Bridge To Cross

Tuned: Dropped D#

Intro (4 times) (confirmed by Nick Catanese)
E-----------------0--------------|
B----------3---------3---3-----2-|
G------------0---------0---0---2-|
D-------4------4---------------2-|
A-----2------------------------0-|
E-0------------------------------|

2nd Intro/Chorus(2x)
E-----------------------------------------------------------|
B-----------------------------------------------------------|
G---------0-----------0----------------0----------------0---|
D------------2----------0---------4-------4---4-----------2-|
A-----2------------2------------5---5-------5--------2------|
E-0--------------3-----------7--------------------0---------|

E----------------------------------------------------- -0-|
B----------------------------------------------------- -0-|
G--------0-----------2-----------0-------------------- -0-|
D-----2-----2------1---1------------------------------ -2-|
A--3------------2-------------2----------------------- -2-|
E-------------------------0-----------3b--0----3--2--- -0-|

Verses(First bar is played 8 times, then the second is place twice, then ending)
E-----------------0--------------|
B----------3---------3---3-----2-|
G------------0---------0---0---x-|
D-------4------4---------------2-|
A-----2------------------------0-|
E-0------------------------------|

Second Bar of verses
E--0-----------------------------------------------------|
B--0-----------------------------------------------------|
G--0-------------------0---------------------0-----------|
D--2--------------4-------4---4---------4-------4---4----|
A--3------------5---5-------5---------5---5-------5------|
E------------7---------------------7---------------------|

E--0-----------|
B--0-----------|
G--0-----------|
D--2---------4-|
A--3---------5-|
E------------7-|

Ending of Verses
E------------|
B------------|
G------------|
D------------|
A------------|
E-7-6----5-3-|

Chorus
E-----------------------------------------------------------|
B-----------------------------------------------------------|
G---------0-----------0----------------0----------------0---|
D------------2----------0---------4-------4---4-----------2-|
A-----2------------2------------5---5-------5--------2------|
E-0--------------3-----------7--------------------0---------|

E----------------------------------------------------- -0-|
B----------------------------------------------------- -0-|
G--------0-----------2-----------0-------------------- -0-|
D-----2-----2------1---1------------------------------ -2-|
A--3------------2-------------2----------------------- -2-|
E-------------------------0-----------3b--0----3--2--- -0-|


Notes:

Song format as follows

Intro
2nd Intro/Chorus
Verse
Chorus
Verse
Chorus
Second Bar of Verse(bridge)
Solo
Chorus
Intro

During the chorus, you can add the "step-up" that the bass does during the guitar line, 
Zakk doesn't do it on the record with the guitar.

The chorus is exactly right because Zakk does a lot of extra picking, but this is the 
Throw in extra shit every time you play it so it doesn't all sound the same.

Solo
D#||------------15b1------|--15b1--15----14-15-14-15-14-------|
A#||----------------------|-----------------------------17~---|
F#||--14------------------|-----------------------------------|
C#||----------------------|-----------------------------------|
G#||----------------------|-----------------------------------|
D#||----------------------|-----------------------------------|

         Staccato
----------------------------|
--16b'--16p-16p-16r---16~---|
----------------------------|
----------------------------|
----------------------------|
----------------------------|

                3                  3                 3
------14-15-(14-15-14)--------------------------------------|
--16-----------------17-15-17-(15-17-15)--------------------|
----------------------------------------16-14-16-(14-16-14)-|
------------------------------------------------------------|
------------------------------------------------------------|
------------------------------------------------------------|

                                 Funky tap part
         3
-----------------------------------------|------------------------------|
-----------------------------------------|----t---------------t---------|
--12-(14-12-14)-12-----14-12---------14r^|12--21--2b---14r^12-21--2b----|
-------------------14--------14~---------|------------------------------|
-----------------------------------------|------------------------------|
-----------------------------------------|------------------------------|


                            Trills                  Feedback
-------------------------|----------------------------------|-------------------|
-------------------------|----------------------------------|-------------------|
----14r^12-21t-2b--------|--0(2)-0(2)-----------------------|-------------------|
-------------------------|-----------0(2)--0(2)-------------|-------------------|
-------------------------|---------------------0(2)--0(2)-0-|--0\---------------|
-------------------------|----------------------------------|-------------------|


  (         6      )(       6        )
--------12-15-12-----------------------------|
-----12----------15--12----------------------|
--14b-------------------14-12----12~---------|
------------------------------14-------------|
---------------------------------------------|
---------------------------------------------|


  (         6      )(       6       )
--------12-15-12-----------------------------|
-----12----------15--12----------------------|
--14b-------------------14-12----11~---------|
------------------------------14-------------|
---------------------------------------------|
---------------------------------------------|


  (        6       ) (      6      )
--------12-15-12---------------------------------|
-----12----------15--12--------------------------|
--14b-------------------14-12----12~-----12--14/-|
------------------------------14-----------------|
-------------------------------------------------|
-------------------------------------------------|


                (    3    )
--------------------------------|----------------12------|
--------------------------------|--------------------12--|
--16--14~-------12--14--12--11~-|----------14b-----------|
--------------------------------|------------------------|
--------------------------------|------------------------|
--------------------------------|------------------------|

            (     3   )          (    3    )       (    3    ) (    3    )
------------12----------------|--------------------------------------------|
--15b1----------15--12--------|--15--12------------15--12------15--12------|
------------------------14b1--|----------14--14b-----------14----------14--|
------------------------------|--------------------------------------------|
------------------------------|--------------------------------------------|
------------------------------|--------------------------------------------|

------------17b1-------||
------------17b1-------||
--12~------------------||
-----------------------||
-----------------------||
-----------------------||

Battering Ram

Tuning: Drop Db
Db Ab Db Gb Bb Eb


|--------------------------------------------------------------|
|--------------------------------------------------------------|
|--------------------------------------------------------------|
|--------------------------------------------------------------|
|-1--0-0-0-0-0--1--0-0-0-0-0--1--0-0-0-0-0--1--0-0-0-0-0-------|
|-1--0-0-0-0-0--1--0-0-0-0-0--1--0-0-0-0-0--1--0-0-0-0-0-------|

|--------------------------------------------------------------|
|--------------------------------------------------------------|
|--------------------------------------------------------------|
|--------------------------------------------------------------|
|-1--0-0-0-0-0---1--0-0-0-0-0------0-0------0-0-0-0-0----------|
|-1--0-0-0-0-0---1--0-0-0-0-0------0-0--3^--0-0-0-0-0--3^------|

|--------------------------------------------------------------|
|--------------------------------------------------------------|
|--------------------------------------------------------------|
|--------------------------------------------------------------|
|--5-3-3-3-5-3-3-3--5-3-3-3-5-3-3-3-3--5-3-3-3-5-3-3-3-3-------|
|--0-0-0-0-0-0-0-0--0-0-0-0-0-0-0-0-0--0-0-0-0-0-0-0-0-0-------|
There is also this going on behind the main rhythm.

Solo:
   Gtr I
     S  S  S  S  S  S  S  S  S  S  S  S  S  S  S  S
||-----16----16-------------------------------------|
||o-15----18----15-18-16-15----16-15-18-16-15----16-|
||--------------------------17----------------17----|
||--------------------------------------------------|
||o-------------------------------------------------|
||--------------------------------------------------|

   S  S  S  S  S  S  S  S  S  S  S  S  S  S  S  S  4x
|--------------------------------------------------||
|-15-18----15-13-16-------------------------------o||
|-------------------14-17-------------14-17-14-17--||
|-------17----------------15-18-15-18--------------||
|-------------------------------------------------o||
|--------------------------------------------------||

              |-3-|       |-3-|         |-3-|
   S    S S S T T T S S S S S S   S S S T T T S S S
|-(1)-|-2-3-4-5p4p3p2-3-2-3p2p1-|-2-3-4-5p4p3p2-3-2-|
|-----|-------------------------|-------------------|
|-----|-------------------------|-------------------|
|-----|-------------------------|-------------------|
|-----|-------------------------|-------------------|
|-----|-------------------------|-------------------|

        |-3-| |--4--|         |-3-|
  S S S T T T S S S S   S S S T T T S S S
|-3-4-5-6p5p4-3-4-3-2-|-3-4-5-6p5p4-3-4-3---|
|---------------------|---------------------|
|---------------------|---------------------|
|---------------------|---------------------|
|---------------------|---------------------|
|---------------------|---------------------|

        |-3-| |--4--|         |-3-|
  S S S T T T S S S S   S S S T T T S S S
|-4-5-6-7p6p5-4-5-4-3-|-4-5-6-7p6p5-4-5-4-|
|---------------------|-------------------|
|---------------------|-------------------|
|---------------------|-------------------|
|---------------------|-------------------|
|---------------------|-------------------|

        |-3-| |--4--|         |-3-|
  S S S T T T S S S S   S S S T T T S S S
|-5-6-7-8p7p6-5-6-5-4-|-5-6-7-8p7p6-5-6-5-|
|---------------------|-------------------|
|---------------------|-------------------|
|---------------------|-------------------|
|---------------------|-------------------|
|---------------------|-------------------|

        |-3-| |--4--|         |-3-|
  S S S T T T S S S S   S S S T T T S S S
|-6-7-8-9p8p7-6-7-6-5-|-6-7-8-9p8p7-6-7-6-|
|---------------------|-------------------|
|---------------------|-------------------|
|---------------------|-------------------|
|---------------------|-------------------|
|---------------------|-------------------|

         |-3-| |--4--|          |-3-|
  S S S  T T T S S S S   S S S  T T T S S S
|-7-8-9-10p9p8-7-8-7-6-|-7-8-9-10p9p8-7-8-7-|
|----------------------|--------------------|
|----------------------|--------------------|
|----------------------|--------------------|
|----------------------|--------------------|
|----------------------|--------------------|


          |-3--| |--4--|           |-3--|
  S S  S  T  T T S S S S   S S  S  T  T T S S S
|-8-9-10-11p10p9-8-9-8-7-|-8-9-10-11p10p9-8-9-8-|
|------------------------|----------------------|
|------------------------|----------------------|
|------------------------|----------------------|
|------------------------|----------------------|
|------------------------|----------------------|

 (A garbled mess:)
                        TP  TP
  S S S S  S  S  S  S   E   E
|-x-x-x-x-/x-/x-/x-/x-|-xS==x----|
|---------------------|----------|
|---------------------|----------|
|---------------------|----------|
|---------------------|----------|
|---------------------|----------|


chorus
eb-------------------------------------------------------------------|
Bb-------------------------------------------------------------------|
Gb-------------------------------------------------------------------|
Db-------------------------------------------------------------------|
Ab-----5--3-0--6-5-3-0-1-3-1-0-1-1-----------------------------------|
Db--0----------6-5-3-0-1-3-1-0-1-1-----------------------------------|
End of song
|--------------------------------------------------------------|
|--------------------------------------------------------------|
|--------------------------------------------------------------|
|--------------------------------------------------------------|
|-1-1-1-1-1-1-1-1----------------------------------------------|
|-1-1-1-1-1-1-1-1----------------------------------------------|

Speedball

Gtr I (Db Ab Db Gb Bb Eb) -

 4/4
  Gtr I
  |----3----| |----3----| |----3----| |----3----|
  S S S S S S S S S S S S S S S S S S S S S S S S
|-1-3-5-1-3-5-------------------------------------||
|-------------2-3-5-2-3-5-------------------------||
|-------------------------2-3-5-2-3-5-------------||
|-------------------------------------2-3-5-2-3-5-||
|-------------------------------------------------||
|-------------------------------------------------||


 5/4
  |----3----|
  S S S S S S H  +H    H     +H
|---------------------------------|-|
|---------------------------------|-|
|--------------------<12>--(<12>)-|-|
|--------------------<12>--(<12>)-|-|
|-4-5-7-4-5-7--------<12>--(<12>)-|-|
|-------------0--(0)-<12>--(<12>)-|-|


   4/4
     |------3-------|  |------3-------|  |------3-------|  |------3-------|
     S  S  S  S  S  S  S  S  S  S  S  S  S  S  S  S  S  S  S  S  S  S  S  S
||--------------------------------------------------------------------------|
||o-------------------------------------------------------------------------|
||-----10-13-14p13p10----10-13-14p13p10----10-13-14p13p10----10-13-14p13p10-|
||--12----------------12----------------12----------------12----------------|
||o-------------------------------------------------------------------------|
||--------------------------------------------------------------------------|


   |-----3------|
   S S  S  S  S S
|-----------------|
|-----------------|
|----9-12-13p12p9-|
|-11--------------|
|-----------------|
|-----------------|


   |-----3------|  |-----3------|  |-----3------|
   S S  S  S  S S  S S  S  S  S S  S S  S  S  S S
|-------------------------------------------------|
|-------------------------------------------------|
|----9-12-13p12p9----9-12-13p12p9----9-12-13p12p9-|
|-11--------------11--------------11--------------|
|-------------------------------------------------|
|-------------------------------------------------|


   |-----3------|  |-----3------|  |-----3------|  |-----3------|
   S S  S  S  S S  S S  S  S  S S  S S  S  S  S S  S S  S  S  S S
|-----------------------------------------------------------------|-|
|-----------------------------------------------------------------|-|
|----8-11-12p11p8----8-11-12p11p8----8-11-12p11p8----8-11-12p11p8-|-|
|-10--------------10--------------10--------------10--------------|-|
|-----------------------------------------------------------------|-|
|-----------------------------------------------------------------|-|


  |----3----| |----3----| |----3----|
  S S S S S S S S S S S S S S S S S S Q       S E.
|-----------------------------------------||-!1-----||
|----------------------------------------o||-!3-----||
|-5-6-7-5-6-7-----------------------------||-!2-----||
|-------------5-6-7-3-4-5-----------------||-!0-----||
|-------------------------3-4-5-3-4-5----o||-!0-----||
|-------------------------------------0---||-!0-0---||


  |----3----| |----3----| |----3----| |----3----|
  S S S S S S S S S S S S S S S S S S S S S S S S
|-------------------------------------------------|-|
|-------------------------------------------------|-|
|-3p2p0-2p0---0---0-------3p2p0-2p0---0---0-------|-|
|-----------3---3---3p2p0-----------3---3---3p2p0-|-|
|-1-----------------------1-----------------------|-|
|-------------------------------------------------|-|


  |----3----| |----3----| |----3----| |-3-|
  S S S S S S S S S S S S S S S S S S S S S S S
|-----------------------------------------------|
|-----------------------------------------------|
|-------------3-5-5-3---------------------------|
|-------3-5-7---------7-5-3---5-3---------------|
|-3-5-7---------------------7-----7-5-3-2-5-3-1-|
|-----------------------------------------------|


  |----3----| |----3----| |----3----| |----3----|
  S S S S S S S S S S S S S S S S S S S S S S S S
|-------------------------------------------------|-|
|-------------------------------------------------|-|
|-3p2p0-2p0---0---0-------3p2p0-2p0---0---0-------|-|
|-----------3---3---3p2p0-----------3---3---3p2p0-|-|
|-1-----------------------1-----------------------|-|
|-------------------------------------------------|-|


  PM---------------------------------------------|
  |----3----| |----3-----| |----3----| |----3----|
  S S S S S S S S S S  S S S S S S S S S S S S S S
|--------------------------------------------------|
|--------------------------------------------------|
|--------------------------------------------------|
|-----0-----0-----0------0-----0-----0-----0-----0-|
|-0h5---0h7---0h8---0h10---0h8---0h7---0h5---0h4---|
|--------------------------------------------------|


  |----3----| |----3----| |----3----| |----3----|
  S S S S S S S S S S S S S S S S S S S S S S S S
|-------------------------------------------------|-|
|-------------------------------------------------|-|
|-3p2p0-2p0---0---0-------3p2p0-2p0---0---0-------|-|
|-----------3---3---3p2p0-----------3---3---3p2p0-|-|
|-1-----------------------1-----------------------|-|
|-------------------------------------------------|-|


  |----3----| |----3----| |----3----| |-3-|
  S S S S S S S S S S S S S S S S S S S S S S S
|-----------------------------------------------|
|-----------------------------------------------|
|-------------3-5-5-3---------------------------|
|-------3-5-7---------7-5-3---5-3---------------|
|-3-5-7---------------------7-----7-5-3-2-5-3-1-|
|-----------------------------------------------|


  |----3----| |----3----| |----3----| |----3----|
  S S S S S S S S S S S S S S S S S S S S S S S S
|-------------------------------------------------|-|
|-------------------------------------------------|-|
|-3p2p0-2p0---0---0-------3p2p0-2p0---0---0-------|-|
|-----------3---3---3p2p0-----------3---3---3p2p0-|-|
|-1-----------------------1-----------------------|-|
|-------------------------------------------------|-|


  |----3----| |----3----| |----3----| |----3----|
  S S S S S S S S S S S S S S S S S S S S S S S S
|-------------------------------------------------|
|-------------------------------------------------|
|-2p0-2p0---0---0---0-----2p0-2p0---0---0---0-----|
|---------3---3---3---3p0---------3---3---3---3p0-|
|-2-----------------------2-----------------------|
|-------------------------------------------------|


  |----3----| |----3----| |----3----| |--3--|
  S S S S S S S S S S S S S S S S S S S S S E S
|-----------------------------------------------|-|
|-----------------------------------------------|-|
|-3p2p0-2p0---0---0-------3p2p0-2p0---0---0-----|-|
|-----------3---3---3p2p0-----------3---3---0---|-|
|-0-----------------------0-----------------0-7-|-|
|-----------------------------------------------|-|


 4/4
  |-3-|                 |-3-|
  S S S S S S S S S S S S S S S S S S S S S S
|---------------------------------------------|
|---------------------------------------------|
|-7p6p0-6p0---0---0-----7p6p0-6p0---0---0-----|
|-----------7---7---5p0-----------7---7---5p0-|
|-7---------------------7---------------------|
|---------------------------------------------|


  |-3-|                   |-3-|
  S S S S S S S S S S S S S S S S S S S S S S S
|-----------------------------------------------|-|
|-----------------------------------------------|-|
|-7p5p0-5p0---0---0-------7p5p0-5p0---0---0-----|-|
|-----------7---7---7-5-0-----------7---7---5p0-|-|
|-6-----------------------6---------------------|-|
|-----------------------------------------------|-|


 5/8                         4/4
    |----3----| |----3----|   |----3----| |----3----| |----3----| |----3----|
  E S S S S S S S S S S S S   S S S S S S S S S S S S S S S S S S S S S S S S
|---------------------------|-------------------------------------1-3-5-1-3-5-|
|---------------------------|-------------------------2-3-5-2-3-5-------------|
|---------------------------|-------------2-3-5-2-3-5-------------------------|
|-2-------------------------|-2-3-5-2-3-5-------------------------------------|
|-0-------------4-5-7-4-5-7-|-------------------------------------------------|
|---5-7-8-5-7-6-------------|-------------------------------------------------|


  |----3----| |----3----| |----3----| |----3----|
  S S S S S S S S S S S S S S S S S S S S S S S S
|-------------------------------------------------|
|-2-3-5-2-3-5-------------------------------------|
|-------------2-3-5-2-3-5-------------------------|
|-------------------------2-3-5-2-3-5-------------|
|-------------------------------------4-5-7-4-5-7-|
|-------------------------------------------------|


  e E E   E     +Q      +E.   S    S  S  S  S   S  S  E  E  S  S  S  S  E   W
|----------------------------10S|=15-14-----------------------------------|---|
|-------------------------------|-------15-13\----------------------------|---|
|-------<12>--(<12>)--(<12>)----|--------------11-12-12-11-12-------------|---|
|-------<12>--(<12>)--(<12>)----|-----------------------------12S10-------|---|
|-0-----<12>--(<12>)--(<12>)----|-----------------------------------12S10-|-9-|
|-0-----<12>--(<12>)--(<12>)----|-----------------------------------------|-0-|


Duration Legend
---------------
W - whole; H - half; Q - quarter; E - 8th; S - 16th; T - 32nd; X - 64th; a - acciaccatura
+ - note tied to previous; . - note dotted; .. - note double dotted
Uncapitalized letters represent notes that are staccato (1/2 duration)
Irregular groupings are notated above the duration line
Duration letters will always appear directly above the note/fret number it represents the
duration for.  Duration letters with no fret number below them represent rests.  Multi-
bar rests are notated in the form Wxn, where n is the number of bars to rest for.  Low
melody durations appear below the staff

Tablature Legend
----------------
 h   - hammer-on
 p   - pull-off
 b   - bend
 pb  - pre-bend
 r   - bend release (if no number after the r, then release immediately)
 /\  - slide into or out of (from/to "nowhere")
 s   - legato slide
 S   - shift slide
  - natural harmonic
[n]  - artificial harmonic
n(n) - tapped harmonic
 ~   - vibrato
 tr  - trill
 T   - tap
 TP  - trem. picking
 PM  - palm muting
\n/  - tremolo bar dip; n = amount to dip
 \n  - tremolo bar down
 n/  - tremolo bar up
/n\  - tremolo bar inverted dip
 =   - hold bend; also acts as connecting device for hammers/pulls
 <>  - volume swell (louder/softer)
 x   - on rhythm slash represents muted slash
 o   - on rhythm slash represents single note slash

Misc Legend
-----------
 |  - bar
||  - double bar
||o - repeat start
o|| - repeat end
*|  - double bar (ending)
 :  - bar (freetime)
 $  - Segno
 &  - Coda
Tempo markers -  = BPM(8/16=s8/s16), where s8 = swing 8ths, s16 = swing 16ths

Graveyard Disciples

Dropped C tuning: C  G  C  F  A  D


                     **INTRO/VERSES**
|-----|---------------------|--------------------------------|
|-----|---------------------|--------------------------------|
|-----|---------------------|-----------------5\7/5----------|
|-x-x-|-0-0-0-0-0-0-0-0---1-|-0-0-0-0-0-0-0------------------|
|-x-x-|-0-0-0-0-0-0-0-0---1-|-0-0-0-0-0-0-0---3\5/3----------|
|-x-x-|-0-0-0-0-0-0-0-0---1-|-0-0-0-0-0-0-0------------------|

   chorus                             last time
|-----------------|-----------------|---------------------------|
|-------8---------|-------4---------|-----6---------------------|
|----7-----7------|----3-----3------|---5------3^---------------|
|-5-----------5---|-1-----------1---|-3-------------------------|
|-----------------|-----------------|---------------------------|
|-----------------|-----------------|---------------------------|

                              pre solo riff and backin solo riff
|-------------|--------------------|-------------|----------------|
|-------------|--------------------|-------------|----------------|
|-------------|--------------------|-------------|----------------|
|-------------|--------------------|-------------|----------------|
|-------------|--------------------|-------------|----------------|
|-12p10-12-10-|-12p10-12--10-12-13-|12p10-12--10-|12p10-12-10-13--|

|------------|-------------------|-------------|------------------|
|------------|-------------------|-------------|------------------|
|------------|-------------------|-------------|------------------|
|------------|-------------------|-------------|------------------|
|------------|-------------------|-------------|------------------|
|14p12-14-12-|14p12-14-12--14-15-|14p12--14-12-|-14p12--14-12-15--|

|-------------|--------------------|------------------------------|
|-------------|--------------------|------------------------------|
|-------------|--------------------|------------------------------|
|-------------|--------------------|------------------------------|
|-------------|--------------------|------------------------------|
|16p14--16-14-|16p12--16-14-16--17-|16p14--16-14---16p14-16-14-17-|

                            **SOLO**
|--------------------------------------------------------------|
|--------------------------------------------------------------|
|--------------------------------------------------------------|
|-14-12-------14-12-14-12-------14-12-14-12-------14-12-14-12--|
|-------14-12-------------14-12-------------14-12--------------|
|--------------------------------------------------------------|

|--------------------------------------------------------------|
|--------------------------------------------------------------|
|--------------------------------------------------------------|
|-------14-12-14-12-------14-12--------------------------------|
|-14-12-------------14-12-------14-12--------------------------|
|--------------------------------------------------------------|

|--------------------------------------------------------------|
|--------------------------------------------------------------|
|--------------------------------------------------------------|
|-17-14-------17-14-17-14-------17-14-17-14-------17-14-17-14--|
|-------17-14-------------17-14-------------17-14--------------|
|--------------------------------------------------------------|

|--------------------------------------------------------------|
|--------------------------------------------------------------|
|--------------------------------------------------------------|
|-------17-14-17-14-------17-14--------------------------------|
|-17-14-------------17-14-------17-14--------------------------|
|--------------------------------------------------------------|

|--------------------------------------------------------------|
|--------------------------------------------------------------|
|--------------------------------------------------------------|
|-19-17-------19-17-19-17-------19-17-19-17-------19-17-19-17--|
|-------19-17-------------19-17-------------19-17--------------|
|--------------------------------------------------------------|

|--------------------------------------------------------------|
|--------------------------------------------------------------|
|--------------------------------------------------------------|
|-------19-17-19-17-------19-17--------------------------------|
|-19-17-------------19-17-------19-17--------------------------|
|--------------------------------------------------------------|

|-15-12--------------------------------------------------------|
|-------15-12-------15-12----------------------------10~-------|
|-------------15-12-------15-12-------15-12--------------------|
|-------------------------------14-12-------14-12--------------|
|--------------------------------------------------------------|
|--------------------------------------------------------------|

|--------------------------------------------------------------|
|--17FBx2--17FBx2--17FBx2--17FBx2--17FBx2----------------------|
|--------------------------------------------------------------|
|--------------------------------------------------------------|
|--------------------------------------------------------------|
|--------------------------------------------------------------|

|-16---------17-18-------------------------------------------------12FB------------------|
|---15-----16-----17---------------------------------------12FB/10-----------------------|
|-----14-15---------16-16-14-----------------------------------------------9FB---7~------|
|----------------------------16-14~--------14-16--(5x)-----------------------------------|
|------------------------------------14-16-----------------------------------------------|
|----------------------------------------------------------------------------------------|

Genocide Junkies

Tuning: down 1/2 step, drop low E to B
(Bb, Ab, Db, Gb, Bb, Eb)

Intro and verse
|-----------------------|--------------------------|
|-----------------------|--------------------------|
|-----------------------|--------------------------|
|-----------------------|--------------------------|
|-----------------------|--------------------------|
|-0-2-2-5-4-2--2--5-4-2-|---2-5-4-2-0-2-2-0-2-2----|


|-----------------------|--------------------------|
|-----------------------|--------------------------|
|-----------------------|--------------------------|
|-----------------------|--------------------------|
|-----------------------|--------------------------|
|-0-2-2-5-4-2---2-5-4-2-|--2-5-4-2-[5]b7r==5--0----|
                                   P.H.

 Pre-Chorus                             3x
||----------------------|------0--------||--------------------------|
||o---------------------|------0-------o||--------------------------|
||----------------------|---------4-----||--------------------------|
||-------4-/5-\4--2h4-2-|-(2)--2--4-----||------4-/5-\4--2h4p2------|
||o-------------------2-|-(2)--2--2----o||---------------------4----|
||--2-2-----------------|---------0-----||-2-2----------------------|
                      ^^^^^^
                    notes tied


 PM--|                   PM--|
|-----------------------|--------------------------|
|-----------------------|--------------------------|
|-----------------------|--------------------------|
|------4-/5-\4--2h4p2---|------4-/5-\4--2h4p2------|
|---------------------4-|---------------------4----|
|-0--0------------------|-0--0---------------------|


|-----------------------------|-----------------------------|
|-----------------------------|-----------------------------|
|-----------------------------|-----4-----------------------|
|-4-/5-\4-2-----4-/5-\4-2-----|-4-6---6-4-\2-4-2---2--------|
|-----------4p2-----------4p2-|------------------4---4-2----|
|-----------------------------|-----------------------------|


   Chorus                                  4x
||--------------------------------0--------||
||o-------------------------------0-------o||
||-----------------------------------4-----||
||--------------------------------2--4-----||
||o-----------11\-----------11\---2--2----o||
||--0-2-2-2---------0-2-2-2----------------||

   4/4
          PM|       PM----|               PM|         PM|       PM|  ~~~
||----------------------|---------------------|-----------------------------||
||o---------------------|---------------------|----------------------------o||
||----------------------|---------------------|-----------------------------||
||--6-(6)-----6-(6)-----|---6-(6)---6-(6)-----|-6-(6)-----6-(6)-------------||
||o-4-(4)-----4-(4)-----|---4-(4)---4-(4)-----|-4-(4)-----4-(4)------------o||
||--0h=2--2-2-0h=2--2-2-|-2-0h=2--2-0h=2--2-2-|-0h=2--2-2-0h=2--2-7-(7)-----||


                                  PM-|      PM----|               PM|
||------------------------|---------------------|----------------------||
||o-----------------------|---------------------|---------------------o||
||--9---9---7---7---7--7--|---------------------|----------------------||
||--9---9---7---7---7--7--|-6-(6)-----6-(6)-----|---6-(6)---6-(6)------||
||o-7---7---5---5---5--5--|-4-(4)-----4-(4)-----|---4-(4)---4-(4)-----o||
||------------------------|-0h=2--2-2-0h=2--2-2-|-2-0h=2--2-0h=2--2-2--||

Lost Heaven

Tuning: standard E A D G B e

	Intro/Verse       Play 6 Times
E|--------------------------------------------------------------------------|
B|--------------------------------------------------------------------------|
G|-------4-------4-------4------4------------------4----3-4-------4-3---3-4-|
D|----------6-------6-------6------6------------------4---------4-------4---|
A|--4---------4-------4-------4------4--------------------------------------|
E|------------------------------------------4--2----------------------------|

	Refrain
E|------------------------------------------------------------------|
B|-------6--------------------------6-------------------------------|
G|-------6----------3--------------6---------------3----------------|
D|-------6----------4--------------6---------------4----------------|
A|-------4----------4--------------4---------------4----------------|
E|------------------2--------------------------------2--------------|
  As I walk this world...........Tired and Alone...........

E|---------------------------------------------------------------------------|
B|-------6----------------------------6--------------------------------------|
G|-------6------------3--------------6---------------------3-----------------|
D|-------6------------4--------------6---------------------4---------5-4--2--|
A|-------4------------4---------------4--------------------4---------5-4--2--|
E|---------------------2------------------------------------2---------3-2--0-|
    Got one foot in the grave, Lord help me make it home.

E|-------------------------------------------------------------------|
B|-------6--------------------------6--------------------------------|
G|-------6----------3--------------6---------------3-----------------|
D|-------6----------4--------------6---------------4-----------------|
A|-------4----------4--------------4---------------4-----------------|
E|------------------2--------------------------------2---------------|
     ill carry your pain, my words bleed straight and true


E|------------------------------------------------------------------------------|
B|------------------------------------------------------------------------------|
G|----------------------------------------6-------------6-------6----------6----|
D|----7-------6---------4--------4------4----------------4-------4--------------|
A|-------7--------6--------4----------------------------------4-------4-------4-|
E|--5-------4--------2--------2----2--------------------------------------------|
    Ohhhhhhhhhhhhhhhhh....                         If it leads me to you

	Play 6 Times
E|--------------------------------------------------------------------------|
B|--------------------------------------------------------------------------|
G|-------4-------4-------4------4------------------4----3-4-------4-3---3-4-|
D|----------6-------6-------6------6------------------4---------4-------4---|
A|--4---------4-------4-------4------4--------------------------------------|
E|------------------------------------------4--2----------------------------|

(Refrain)

Play verse 6 more times

(Refrain)

Outro (same as verse)


Refuse To Bow Down

tuning- Bb Ab Db Gb Bb Eb
*=pinch harmonic


 Riff A
Eb------------------------------------------------------------------|
Bb------------------------------------------------------------------|
Gb------------------------------------------------------------------|
Db------------------------------------------------------------------|
Ab--------------------------------------------------------------*---|
Bb---0h3-0h3-0h3-0h3-0-6-5-3--5h6-5-3--0h3-0h3-0h3-0h3-0-6-5-3--3~--|


 Riff B
Eb--------------------------------------------|
Bb--------------------------------------------|
Gb--------------------------------------------|
Db--9--7--5-----------------------------------|
Ab--7--5--3----------0-0-0--0-0-0--0-0-0-0----|
Bb-------------------0-0-0--0-0-0--0-0-0-0----|
                     pm...................


 Riff C
Eb-------------------------------------------------------|
Bb-------------------------------------------------------|
Gb-------------------------------------------------------|
Db--------------------------3-------------------------3--|
Ab--------------------------3-------------------------3--|
Bb--0000000000--0000000000--1--000000000--0000000000--1--|
    pm....................     .....................

Eb-------------------------------------------------------|
Bb-------------------------------------------------------|
Gb-------------------------------------------------------|
Db--------------------------3-------------------------3--|
Ab--------------------------3-------------------------3--|
Bb---0-0-0-0-0--0-0-0-0-0-0-1--0-0-0-0-0--0-0-0-0-0-0-1--|
     pm....................    ......................

Alt. Intro and verse riff, played after first chorus thru rest of song~~~
|-----------------|-----------------|-----------------|------------------|
|-----------------|-----------------|-----------------|------------------|
|-----------------|-----------------|-----------------|------------------|
|-----------------|-----------------|-----------------|------------------|
|-----------------|-----------------|-----------------|------------------|
|-0-3-0-3-0---0-3-|-0-6-5-3-5-6-5-3-|-0-3-0-3-0---0-3-|-0-6-5-3-5-6-[3]~~|
          ^                                   ^                     P.H.
(longer value than before on ^ notes)


Mass Murder Machine

 Tuning: Db Ab Db Gb Bb Eb

------------------------------------------------------------------------------|
------------------------------------------------------------------------------|
-----------------------5------------------------------------------------------|
------3----------3-----5-------3----------3-----------------------------------|
--3-5---3-5--3-5---3-5-3---3-5---3-5--3-5---------------3-0-------------------|
---------------------------------------------5b6r-5/6\5-3-0-------------------|
  A                  repeat 8x

------------------------------------------------------------------------------|
------------------------------------------------------------------------------|
----7----5--3-----2--2----5-------7----5--3-----2--2----5---------------------|
---7----5---3-----2--2----5------7----5---3-----2--2----5-----x\--------------|
--5----3----1-----0--0----3-----5----3----1-----0--0----3-----x\--------------|
---------------0----------------------------------------------x\--------------|
  B                                                           ~~~PickScrape

 Repeat A 8x then B then A 4x

------------------------------------------------------------------------------|
-------3---------3--------3-------3-------3-------5-5-------------------------|
--7----3----7----3----7---3---7---3---7---3---7---5-5-------------------------|
--7----3----7----3----7---3---7---3---7---3---7---5-5--------x\---------------|
--5----1----5----1----5---1---5---1---5---1---5---3-3--------x\---------------|
--0---------0---------0-------0-------0-------0--------------x\---------------|
                                                             ~~~PickScrape

 Repeat part A 4x Under Solo then B then A again till end with variation


Berserkers

Tuning:  G g C F A D


The inro is played with bass

D-----------------------------------|
A-----------------------------------|
F-----------------------------------|
C-----------------------------------|
g-----------------------------------|
G---13p12--0-12-0-12-0-12-0-10h12-0-|

D-------------------------------|
A ------------------------------|
F-------------------------------|
C-------------------------------|
g-------------------------------|
G---13p12--0-12-0-12-0-12-0--6~-|

Then guitars (?)chrushes(?) in:
D----------------------------|
A----------------------------|
F----------------------------|
C----------------------------|
g-0-0-0-0-0-0-0-0-0-0-0-0-6~-|
G-0-0-0-0-0-0-0-0-0-0-0-0-6~-|

D-----------------------------------|
A-----------------------------------|
F-----------------------------------|
C-----------------------------------|
g-0-0-0-0-0-0-0-0-0-0-5p3---6p0--5~-|
G-0-0-0-0-0-0-0-0-0-0-----0------5~-|

"Drinking,puking etc."riff
D-----------------------------------------|
A-----------------------------------------|
F-----------------------------------------|
C-----------------------------------------|
g-----------------------------------------|
G-12~--11~--10~--0-3-0---6~--5~--3Br~--0--|
                            a.h  a.h


Outro
D---------------------------|
A---------------------------|
F--3s2-2-2--2-2--2-2--0h2-2-|
C--x-x-x-x--x-x--x-x--------|
g--1p0-0-0--0-0--0-0--------|
G---------------------------|

D--------------------------------|
A--------------------------------|
F--3s2-2-2--2-2------------------|
C--x-x-x-x--x-x------------------|
g--1p0-0-0--0-0--0-0-0---0-0-0---|
G----------------0-0-0---0-0-0---|

America The Beautiful

Tuning: standard

Opening arpeggio:

E:---------------------------------------------------:
B:---------------------------------------------------:
G:--------------0------------------------0-----------:
D:---------0-------0-----0---------0--------0-----0--:
A:------2----2--------2---------2-----2--------3-----:
E:---3-----------------------3-----------------------:

|-----------------|----------------|-----------------|--------7-------|
|-----------------|-----3-5/7------|-----------------|10-9-10-----10--|
|-7-7-4-4-7-7\2-2-|-4-5-------7-5-4|-7-7-4-4-7-7\2-2-|----------9-----|
|-----------------|----------------|-----------------|----------------|
|-----------------|----------------|-----------------|----------------|
|-----------------|----------------|-----------------|----------------|

|---------------------------------------------|--------------------------5----|
|--10/12-12-10-8-8-10---8-10----------8-0h1-0-|-8-8-5-5-8-8--------5-8-----8--|
|7--------------------9------9/11-9-7---0h2-0-|-------------7-7--7-----7------|
|---------------------------------------------|-------------------------------|
|---------------------------------------------|-------------------------------|
|---------------------------------------------|-------------------------------|

|---------------|-----------------|--------------------------7-----------|
|---------------|-----3-5/7-------|------------------10-9-10-----10------|
|7-7-4-4-7-7\2-2|-4-5-------7-5-4-|-7-7-4-4-7-7\2-2------------9---------|
|---------------|-----------------|--------------------------------------|
|---------------|-----------------|--------------------------------------|
|---------------|-----------------|--------------------------------------|

|----------------------------------------------|--------------------------5--|-------|
|---10/12-12-10-8-8-10---8/10----------8-0h1-0-|-8-8-5-5-8-8--------5-8-----8|0h1-0--|
|-7--------------------9------9/11-9-7---0h2-0-|-------------7-7--7-----7----|0h2-0--|
|----------------------------------------------|-----------------------------|-------|
|----------------------------------------------|-----------------------------|-------|
|----------------------------------------------|-----------------------------|-------|

solo/breakdown:(there are some variations on the end of it as the song progresses)

E:-10h12-8h10-7h8------------------------------------:
B:-----------------10h12-8h10-7h8-5h7----------------:
G:-------------------------------------7h9-5h7-------:
D:---------------------------------------------------:
A:---------------------------------------------------:
E:---------------------------------------------------:

E:-------------- ------------------------------------:
B:---------------------------------------------------:
G:--4h5p4/2--2h4--2--0--0----------------------------:
D:---------------------------------------------------:
A:---------------------------------------------------:
E:---------------------------------------------------:

repeat 3x
Добавлено: 11.11.2013
Другие материалы по этой песне:
  • Аккорды и текст

Страница создана 19.08.2013
http://primanota.ru/black-label-society/1919-eternal-chords.htm
Привет, Гость.
Предлагаем пройти революционный курс по гитаре.
Подарок от PrimaNota.Ru, забирай!