PrimaNota.ru - самый крупный в мире бесплатный архив песенных текстов, аккордов, табулатур и нот


Black Knight - Warlords Wrath - таба, видео

Регистрация Запомнить меня
Войти через:  Facebook Google Twitter Vk Yandex Mail.ru

Black Knight - Warlords Wrath - таба, видео

Печатать
Просмотров: 134
Artist: Black Knight
Song: Warlord's Wrath
Album: Master of Disaster
Tuning: Standard



Intro 

Gtr 1
||---------------------------------------||
||---------------------------------------||
||---------------------------------------||
||--9----12-10----14-12----12-10----7-9--||
||--7----10--9----12-10----10--9----5-7--||
||--0------------------------------------||

Gtr 2
||-------------------------------||-------------------------------|
||-------------------------------||-------------------------------|
||--7-9-11-7-9-11-7-9-11-7-9-11--||--7-9-11-9-7----7--------------|
||-------------------------------||-------------10---10-9-10-9-7--|
||-------------------------------||-------------------------------|
||-------------------------------||-------------------------------|


|--------------------------------|
|--------------------------------|
|--------------------------------|
|--5----4---9----4--5----4--2----|
|--7----5--10----5--7----5--3----|
|--------------------------------|

|-------------------------------------|
|-------------------------------------|
|-------------------------------------|
|--4--5----4---9----2--4----4----4----|
|--5--7----5--10----3--5----5----5----|
|-------------------------------------|



Main

||-------------------------------------||
||-------------------------------------||
||-------------------------------------||
||-----9-------9-------9-------4--4----||
||-----7-------7-------7-------5--5----||
||--0-----0-0-----0-0-----0-0----------|| x4
       PM . .     . .     . .


|-------------------------------------|
|-------------------------------------|
|-------------------------------------|
|-----9-------9-------9-------4--4----|
|-----7-------7-------7-------5--5----|
|--0-----0-0-----0-0-----0-0----------|
      PM . .     . .     . .

|---------------------------------------|
|---------------------------------------|
|---------------------------------------|
|-------9-------9-------9-------4--4----|
|-------7-------7-------7-------5--5----|
|--0-0-----0-0-----0-0-----0-0----------|
PM . .     . .     . .     . .

|---------------------------------------|
|---------------------------------------|
|---------------------------------------|
|-------9-------9-------9-------4--4----|
|-------7-------7-------7-------5--5----|
|--0-0-----0-0-----0-0-----0-0----------|
PM . .     . .     . .     . .

|-----------|
|-----------|
|-----------|
|--7--------|
|--5--------|
|-------x\--|



Verse

|-------------------------------------|
|-------------------------------------|
|-------------------------------------|
|-----9-------9-------9-------4--4----|
|-----7-------7-------7-------5--5----|
|--0-----0-0-----0-0-----0-0----------|
      PM . .     . .     . .

|---------------------------------------|
|---------------------------------------|
|---------------------------------------|
|-------9-------9-------9-------4--4----|
|-------7-------7-------7-------5--5----|
|--0-0-----0-0-----0-0-----0-0----------|
PM . .     . .     . .     . .

|---------------------------------------|
|---------------------------------------|
|---------------------------------------|
|-------9-------9-------9-------4--4----|
|-------7-------7-------7-------5--5----|
|--0-0-----0-0-----0-0-----0-0----------|
PM . .     . .     . .     . .

|------------|
|------------|
|------------|
|--7----7----|
|--5----5----|
|------------|

|-------------------------------------|
|-------------------------------------|
|-------------------------------------|
|-----9-------9-------9-------4--4----|
|-----7-------7-------7-------5--5----|
|--0-----0-0-----0-0-----0-0----------|
      PM . .     . .     . .

|---------------------------------------|
|---------------------------------------|
|---------------------------------------|
|-------9-------9-------9-------4--4----|
|-------7-------7-------7-------5--5----|
|--0-0-----0-0-----0-0-----0-0----------|
PM . .     . .     . .     . .

|---------------------------------------|
|---------------------------------------|
|---------------------------------------|
|-------9-------9-------9-------4--4----|
|-------7-------7-------7-------5--5----|
|--0-0-----0-0-----0-0-----0-0----------|
PM . .     . .     . .     . .

|-------------|
|-------------|
|-------------|
|--7----7--9--|
|--5----5--7--|
|-------------|



Chorus


| Gtr 1
|--------------------------------|
|--------------------------------|
|--------------------------------|
|--5--------------7--------------|
|--3--------------5--------------|
|--------------------------------|
|
| Gtr 2
|--------------------------------|
|--------------------------------|
|--------------------------------|
|--------2-3-5----------4-5-7----|
|--3-3-5----------5-5-7----------|
|--------------------------------|

|-------------------------------------|
|-------------------------------------|
|-------------------------------------|
|-----9-------9-------9-------4--4----|
|-----7-------7-------7-------5--5----|
|--0-----0-0-----0-0-----0-0----------|
      PM . .     . .     . .

|---------------------------|
|---------------------------|
|---------------------------|
|-------9-------9-------4\--|
|-------7-------7-------5\--|
|--0-0-----0-0-----0-0------|
PM . .     . .     . .     


Verse

|-------------------------------------|
|-------------------------------------|
|-------------------------------------|
|-----9-------9-------9-------4--4----|
|-----7-------7-------7-------5--5----|
|--0-----0-0-----0-0-----0-0----------|
      PM . .     . .     . .

|---------------------------------------|
|---------------------------------------|
|---------------------------------------|
|-------9-------9-------9-------4--4----|
|-------7-------7-------7-------5--5----|
|--0-0-----0-0-----0-0-----0-0----------|
PM . .     . .     . .     . .

|---------------------------------------|
|---------------------------------------|
|---------------------------------------|
|-------9-------9-------9-------4--4----|
|-------7-------7-------7-------5--5----|
|--0-0-----0-0-----0-0-----0-0----------|
PM . .     . .     . .     . .


|------------|
|------------|
|------------|
|--7----7----|
|--5----5----|
|------------|


|-------------------------------------|
|-------------------------------------|
|-------------------------------------|
|-----9-------9-------9-------4--4----|
|-----7-------7-------7-------5--5----|
|--0-----0-0-----0-0-----0-0----------|
      PM . .     . .     . .

|---------------------------------------|
|---------------------------------------|
|---------------------------------------|
|-------9-------9-------9-------4--4----|
|-------7-------7-------7-------5--5----|
|--0-0-----0-0-----0-0-----0-0----------|
PM . .     . .     . .     . .

|---------------------------------------|
|---------------------------------------|
|---------------------------------------|
|-------9-------9-------9-------4--4----|
|-------7-------7-------7-------5--5----|
|--0-0-----0-0-----0-0-----0-0----------|
PM . .     . .     . .     . .



Chorus


| Gtr 1
|--------------------------------|
|--------------------------------|
|--------------------------------|
|--5--------------7--------------|
|--3--------------5--------------|
|--------------------------------|
|
| Gtr 2
|--------------------------------|
|--------------------------------|
|--------------------------------|
|--------2-3-5----------4-5-7----|
|--3-3-5----------5-5-7----------|
|--------------------------------|


|-------------------------------------|
|-------------------------------------|
|-------------------------------------|
|-----9-------9-------9-------4--4----|
|-----7-------7-------7-------5--5----|
|--0-----0-0-----0-0-----0-0----------|
      PM . .     . .     . .

|---------------------------------------|
|---------------------------------------|
|---------------------------------------|
|-------9-------9-------9-------4--4----|
|-------7-------7-------7-------5--5----|
|--0-0-----0-0-----0-0-----0-0----------|
PM . .     . .     . .     . .


| Gtr 1
|--------------------------------|-------|
|--------------------------------|-------|
|--------------------------------|-------|
|--5--------------7--------------|-------|
|--3--------------5--------------|-------|
|--------------------------------|--0----|
|
| Gtr 2
|--------------------------------|-------|
|--------------------------------|-------|
|--------------------------------|-------|
|--------2-3-5----------4-5-7----|-------|
|--3-3-5----------5-5-7----------|-------|
|--------------------------------|--0----|



Bridge I

|-----------------------------------------------|
|-----------------------------------------------|
|-----------------------------------------------|
|-----------------------------------------------|
|--------------------------------------0h2p0-5--|
|--0-----0-0-0-0-0-0-0-0-0-0-0-0-0-0-0----------|
      PM . . . . . . . . . . . . . . .

|-----------------------------------------------|
|-----------------------------------------------|
|-----------------------------------------------|
|--------------------------------------------4--|
|--------------------------------------0h2p0----|
|--0-0-0-0-0-0-0-0-0-0-0-0-0-0-0-0-0-0----------|
PM . . . . . . . . . . . . . . . . . .

|-----------------------------------------------|
|-----------------------------------------------|
|-----------------------------------------------|
|-----------------------------------------------|
|--------------------------------------0h2p0-5--|
|--0-0-0-0-0-0-0-0-0-0-0-0-0-0-0-0-0-0----------|
PM . . . . . . . . . . . . . . . . . .

|-----------------------------------------------|
|-----------------------------------------------|
|-----------------------------------------------|
|--------------------------------------------4--|
|--------------------------------------0h2p0----|
|--0-0-0-0-0-0-0-0-0-0-0-0-0-0-0-0-0-0----------|
PM . . . . . . . . . . . . . . . . . .



Bridge II

|---------------------------------------------|
|---------------------------------------------|
|---------------------------------------------|
|---------------------------------------------|
|-----------------------------------0h2p0--5--|
|--0--0-0-0-0-0--0-0-0-0-0--0-0-0-0-----------|
PM .  . . . . .  . . . . .  . . . .


|---------------------------------------------|
|---------------------------------------------|
|---------------------------------------------|
|------------------------------------------4--|
|-----------------------------------0h2p0-----|
|--0--0-0-0-0-0--0-0-0-0-0--0-0-0-0-----------|
PM .  . . . . .  . . . . .  . . . .


|-----------------------|
|-----------------------|
|-----------------------|
|--7----7----7----7--9--|
|--5----5----5----5--7--|
|-----------------------|

|---------------------------------------------|
|---------------------------------------------|
|---------------------------------------------|
|---------------------------------------------|
|-----------------------------------0h2p0--5--|
|--0--0-0-0-0-0--0-0-0-0-0--0-0-0-0-----------|
PM .  . . . . .  . . . . .  . . . .


|---------------------------------------------|
|---------------------------------------------|
|---------------------------------------------|
|---------------------------------------------|
|-----------------------------------0h2p0--5--|
|--0--0-0-0-0-0--0-0-0-0-0--0-0-0-0-----------|
PM .  . . . . .  . . . . .  . . . .


|---------------------------------------------|
|---------------------------------------------|
|---------------------------------------------|
|------------------------------------------4--|
|-----------------------------------0h2p0-----|
|--0--0-0-0-0-0--0-0-0-0-0--0-0-0-0-----------|
PM .  . . . . .  . . . . .  . . . .


|-----------------------|
|-----------------------|
|-----------------------|
|--7----7----7----7--9--|
|--5----5----5----5--7--|
|-----------------------|


|---------------------------------------------|
|---------------------------------------------|
|---------------------------------------------|
|---------------------------------------------|
|-----------------------------------0h2p0--5--|
|--0--0-0-0-0-0--0-0-0-0-0--0-0-0-0-----------|
PM .  . . . . .  . . . . .  . . . .



Bridge III

|------------|
|------------|
|------------|
|--5----7----|
|--3----5----|
|------------|


|------------------------------------------|
|------------------------------------------|
|------------------------------------------|
|------------------------------------------|
|------------------------------------------|
|--0--0-0-0-0-0--0-0-0-0-0--0-0-0-0-0-0-0--|
PM .  . . . . .  . . . . .  . . . . . . .


|-----------------------|
|-----------------------|
|-----------------------|
|--5----7----4----5--7--|
|--3----5----2----3--5--|
|-----------------------|



Solo Rhythm


|-----------------------------------------------------|
|-----------------------------------------------------|
|-----------------------------------------------------|
|-----------------------------------------------------|
|-----------------------------------------------------|
|--7-7-7-7-7-7-7-7-7-7-7-7-7-7-7-7-7-7-7-7-7-7-7-7-7--|
|-----------------------------------------------------|
PM . . . . . . . . . . . . . . . . . . . . . . . . .

|-----------------------------------------------------|
|-----------------------------------------------------|
|-----------------------------------------------------|
|-----------------------------------------------------|
|-----------------------------------------------------|
|--5-5-5-5-5-5-5-5-5-5-5-5-5-5-5-5-5-5-5-5-5-5-5-5-5--|
|-----------------------------------------------------|
PM . . . . . . . . . . . . . . . . . . . . . . . . .

|------------|
|------------|
|------------|
|--5----7----|
|--3----5----|
|------------|

|------------------------------------------|
|------------------------------------------|
|------------------------------------------|
|------------------------------------------|
|------------------------------------------|
|--0--0-0-0-0-0--0-0-0-0-0--0-0-0-0-0-0-0--|
PM .  . . . . .  . . . . .  . . . . . . .


|-----------------------------------------------------|
|-----------------------------------------------------|
|-----------------------------------------------------|
|-----------------------------------------------------|
|-----------------------------------------------------|
|--7-7-7-7-7-7-7-7-7-7-7-7-7-7-7-7-7-7-7-7-7-7-7-7-7--|
|-----------------------------------------------------|
PM . . . . . . . . . . . . . . . . . . . . . . . . .

|-----------------------------------------------------|
|-----------------------------------------------------|
|-----------------------------------------------------|
|-----------------------------------------------------|
|-----------------------------------------------------|
|--5-5-5-5-5-5-5-5-5-5-5-5-5-5-5-5-5-5-5-5-5-5-5-5-5--|
|-----------------------------------------------------|
PM . . . . . . . . . . . . . . . . . . . . . . . . .

|------------|
|------------|
|------------|
|--5----7----|
|--3----5----|
|------------|

|------------------------------------------|
|------------------------------------------|
|------------------------------------------|
|------------------------------------------|
|------------------------------------------|
|--0--0-0-0-0-0--0-0-0-0-0--0-0-0-0-0-0-0--|
PM .  . . . . .  . . . . .  . . . . . . .


|------------------------------------------|
|------------------------------------------|
|------------------------------------------|
|--9----9----7----7----5----7----9----9----|
|--7----7----5----5----3----5----7----7----|
|------------------------------------------|

|------------------------------------------|
|------------------------------------------|
|------------------------------------------|
|--9----9----7----7----5----7----9---------|
|--7----7----5----5----3----5----7---------|
|------------------------------------------|


| Gtr 1
|--------------------------------|
|--------------------------------|
|--------------------------------|
|--5--------------7--------------|
|--3--------------5--------------|
|--------------------------------|
|
| Gtr 2
|--------------------------------|
|--------------------------------|
|--------------------------------|
|--------2-3-5----------4-5-7----|
|--3-3-5----------5-5-7----------|
|--------------------------------|



Verse

|-------------------------------------|
|-------------------------------------|
|-------------------------------------|
|-----9-------9-------9-------4--4----|
|-----7-------7-------7-------5--5----|
|--0-----0-0-----0-0-----0-0----------|
      PM . .     . .     . .

|---------------------------------------|
|---------------------------------------|
|---------------------------------------|
|-------9-------9-------9-------4--4----|
|-------7-------7-------7-------5--5----|
|--0-0-----0-0-----0-0-----0-0----------|
PM . .     . .     . .     . .

|---------------------------------------|
|---------------------------------------|
|---------------------------------------|
|-------9-------9-------9-------4--4----|
|-------7-------7-------7-------5--5----|
|--0-0-----0-0-----0-0-----0-0----------|
PM . .     . .     . .     . .

|------------|
|------------|
|------------|
|--7----7----|
|--5----5----|
|------------|

|-------------------------------------|
|-------------------------------------|
|-------------------------------------|
|-----9-------9-------9-------4--4----|
|-----7-------7-------7-------5--5----|
|--0-----0-0-----0-0-----0-0----------|
      PM . .     . .     . .

|---------------------------------------|
|---------------------------------------|
|---------------------------------------|
|-------9-------9-------9-------4--4----|
|-------7-------7-------7-------5--5----|
|--0-0-----0-0-----0-0-----0-0----------|
PM . .     . .     . .     . .

|---------------------------------------|
|---------------------------------------|
|---------------------------------------|
|-------9-------9-------9-------4--4----|
|-------7-------7-------7-------5--5----|
|--0-0-----0-0-----0-0-----0-0----------|
PM . .     . .     . .     . .

|-------------|
|-------------|
|-------------|
|--7----7--9--|
|--5----5--7--|
|-------------|


Chorus


| Gtr 1
|--------------------------------|
|--------------------------------|
|--------------------------------|
|--5--------------7--------------|
|--3--------------5--------------|
|--------------------------------|
|
| Gtr 2
|--------------------------------|
|--------------------------------|
|--------------------------------|
|--------2-3-5----------4-5-7----|
|--3-3-5----------5-5-7----------|
|--------------------------------|


|-------------------------------------|
|-------------------------------------|
|-------------------------------------|
|-----9-------9-------9-------4--4----|
|-----7-------7-------7-------5--5----|
|--0-----0-0-----0-0-----0-0----------|
      PM . .     . .     . .

|---------------------------------------|
|---------------------------------------|
|---------------------------------------|
|-------9-------9-------9-------4--4----|
|-------7-------7-------7-------5--5----|
|--0-0-----0-0-----0-0-----0-0----------|
PM . .     . .     . .     . .


| Gtr 1
|--------------------------------|-----------|
|--------------------------------|-----------|
|--------------------------------|-----------|
|--5--------------7--------------|--9----9\--|
|--3--------------5--------------|--7----7\--|
|--------------------------------|--0--------|
|
| Gtr 2
|--------------------------------|-----------|
|--------------------------------|-----------|
|--------------------------------|-----------|
|--------2-3-5----------4-5-7----|--9----9\--|
|--3-3-5----------5-5-7----------|--7----7\--|
|--------------------------------|--0--------|


Добавлено: 18.10.2015
Другие материалы по этой песне:

Страница создана 18.10.2015
http://primanota.ru/black-knight/warlords-wrath-chords.htm
Привет, Гость.
Предлагаем пройти революционный курс по гитаре.
Подарок от PrimaNota.Ru, забирай!