PrimaNota.ru - самый крупный в мире бесплатный архив песенных текстов, аккордов, табулатур и нот


Black Knight - Metal Screams - таба, видео

Регистрация Запомнить меня
Войти через:  Facebook Google Twitter Vk Yandex Mail.ru

Black Knight - Metal Screams - таба, видео

Печатать
Просмотров: 104
Artist: Black Knight
Song: Metal Screams
Album: Master of Disaster
Tuning: Standard


Chorus/Intro

||---------------------------------------|--------------------------------||
||---------------------------------------|--------------------------------||
||-------------4----4--3----4------------|-------------4----4--3----------||
||-------------4----4--3----4----4--6----|-------------4----4--3-------6--||
||--6--4--6----------------------4--6----|--6--4--6-----------------4--4--||
||--4--2--4------------------------------|--4--2--4-----------------2-----||


|-------------|
|-------------|
|-------------|
|-------------|
|--6--4--6----|
|--4--2--4----|


Verse (Clean Guitar)

||-----------------------||
||-----------------------||
||-------6----4----6--4--||
||--6----6----4----6--4--||
||--6--------------------||
||-----------------------||



Pre-Chorus

|------------------|
|------------------|
|------------------|
|------------------|
|-------6--4--6----|
|--x\---4--2--4----|


|---------------|---------------|---------------|---------------|
|---------------|---------------|---------------|---------------|
|---------------|---------------|---------------|---------------|
|---------4--6--|---------6--4--|---------4--6--|---------------|
|--6------2--4--|--6------4--2--|--6------2--4--|--4---6--4--6--|
|--4-4-4--------|--4-4-4--------|--4-4-4--------|--2---4--2--4--|
  PM . .             . .             . .

|---------------|---------------|----------------------|
|---------------|---------------|----------------------|
|---------------|---------------|----------------------|
|---------4--6--|---------6--4--|---------4--6----6----|
|--6------2--4--|--6------4--2--|--6------2--4----4----|
|--4-4-4--------|--4-4-4--------|--4-4-4---------------|
  PM . .             . .             . .



Chorus

||---------------------------------------|--------------------------------||
||---------------------------------------|--------------------------------||
||-------------4----4--3----4------------|-------------4----4--3----------||
||-------------4----4--3----4----4--6----|-------------4----4--3-------6--||
||--6--4--6----------------------4--6----|--6--4--6-----------------4--4--||
||--4--2--4------------------------------|--4--2--4-----------------2-----||


|-------------|
|-------------|
|-------------|
|-------------|
|--6--4--6----|
|--4--2--4----|
         *Verse starts


Verse (Clean Guitar)

||-----------------------||
||-----------------------||
||-------6----4----6--4--||
||--6----6----4----6--4--||
||--6--------------------||
||-----------------------||



Pre-Chorus

|------------------|
|------------------|
|------------------|
|------------------|
|-------6--4--6----|
|--x\---4--2--4----|


|---------------|---------------|---------------|---------------|
|---------------|---------------|---------------|---------------|
|---------------|---------------|---------------|---------------|
|---------4--6--|---------6--4--|---------4--6--|---------------|
|--6------2--4--|--6------4--2--|--6------2--4--|--4---6--4--6--|
|--4-4-4--------|--4-4-4--------|--4-4-4--------|--2---4--2--4--|
  PM . .             . .             . .

|---------------|---------------|----------------------|
|---------------|---------------|----------------------|
|---------------|---------------|----------------------|
|---------4--6--|---------6--4--|---------4--6----6----|
|--6------2--4--|--6------4--2--|--6------2--4----4----|
|--4-4-4--------|--4-4-4--------|--4-4-4---------------|
  PM . .             . .             . .


Chorus

||---------------------------------------|--------------------------------||
||---------------------------------------|--------------------------------||
||-------------4----4--3----4------------|-------------4----4--3----------||
||-------------4----4--3----4----4--6----|-------------4----4--3-------6--||
||--6--4--6----------------------4--6----|--6--4--6-----------------4--4--||
||--4--2--4------------------------------|--4--2--4-----------------2-----||


Solo Rhythm

 
|---------------||------------------------------------||
|---------------||------------------------------------||
|---------------||------------------------------------||
|----6----------||------------------------------------||
|----4----8--6--||--8----------------------------6----||
|---------6--4--||--6----6-6-6-6-6-6-6-6-6-6-6-6-4----||
                     PM . . . . . . . . . . . .

||------------------------------------||
||------------------------------------||
||------------------------------------||
||--6----------------------------4----||
||--4----4-4--4-4--4-4--4-4--4-4-2----||
||------------------------------------||
     PM . . . . . . . . . . . .

|------------------------------------|
|------------------------------------|
|------------------------------------|
|--8----------------------------6----|
|--6----6-6-6-6-6-6-6-6-6-6-6-6-4----|
|------------------------------------|
     PM . . . . . . . . . . . .


|------------------------------------|
|------------------------------------|
|------------------------------------|
|--8---------------------------------|
|--6----6-6-6-6-6-6--6-4---4---------|
|------------------------7----7-6\---|
     PM . . . . . .



Bridge

||-----------------------||
||-----------------------||
||-----------------------||
||-----------------------||
||-----------------------||
||--4--4-4-4--4-4-4--4-4-||
 PM .  . . .  . . .  . .


|-----------------------------|
|-----------------------------|
|-----------------------------|
|-----------------------------|
|----------6-6-6-6-6-6-6-6-6--|
|--4-4-4-4-4-4-4-4-4-4-4-4-4--|
PM . . . . . . . . .



Chorus/Outro

||---------------------------------------|--------------------------------||
||---------------------------------------|--------------------------------||
||-------------4----4--3----4------------|-------------4----4--3----------||
||-------------4----4--3----4----4--6----|-------------4----4--3-------6--||
||--6--4--6----------------------4--6----|--6--4--6-----------------4--4--||
||--4--2--4------------------------------|--4--2--4-----------------2-----||


|---------------------------------------|-----------------------------|
|---------------------------------------|-----------------------------|
|-------------4----4--3----4------------|-------------4----4--3-------|
|-------------4----4--3----4----4--6----|-------------4----4--3-------|
|--6--4--6----------------------4--6----|--6--4--6--------------------|
|--4--2--4------------------------------|--4--2--4-----------------2--|

|------------------------------------|
|------------------------------------|
|------------------------------------|
|------------------------------------|
|----------6-6-6-6-6-6-6-6-6--6-4-6--|
|--4-4-4-4-4-4-4-4-4-4-4-4-4--4-2-4--|
PM . . . . . . . . . . . . .


Добавлено: 18.10.2015
Вам также может быть интересно:
Другие материалы по этой песне:

Страница создана 18.10.2015
http://primanota.ru/black-knight/metal-screams-chords.htm
Привет, Гость.
Предлагаем пройти революционный курс по гитаре.
Подарок от PrimaNota.Ru, забирай!