PrimaNota.ru - самый крупный в мире бесплатный архив песенных текстов, аккордов, табулатур и нот


Black Knight - Master Of Disaster - таба, видео

Регистрация Запомнить меня
Войти через:  Facebook Google Twitter Vk Yandex Mail.ru

Black Knight - Master Of Disaster - таба, видео

Печатать
Просмотров: 99
Artist: Black Knight
Song: Master of Disaster
Album: Master of Disaster
Tuning: Standard


Intro

|--------------|--------------|--------------|-----------------------------------------|
|--------------|--------------|--------------|-----------------------------------------|
|--------------|--------------|--------------|-----------------------------------------|
|--2--4--5--7--|--2--4--5--7--|--2--4--5--7--|--9--10--12--14-14-14-14-14-14-14-14-14--|
|--0--2--3--5--|--0--2--3--5--|--0--2--3--5--|--7---8--10--12-12-12-12-12-12-12-12-12--|
|--------------|--------------|--------------|-----------------------------------------|



Main/Chorus

|---------------------------------|------------------------------------|
|---------------------------------|------------------------------------|
|---------------------------------|------------------------------------|
|--2--------9-----10--------------|--2--------9-----10-----12----------|
|--0--0--0--7--0---8--------0--0--|--0--0--0--7--0---8--0--10----0--0--|
|---------------------------------|------------------------------------|
 PM   .  .     .            .  .        .  .     .      .        .  .  


|---------------------------------|--------------------------|
|---------------------------------|--------------------------|
|---------------------------------|--------------------------|
|--2--------9-----10--------------|--12----10----9-----------|
|--0--0--0--7--0---8--------0--0--|--10-----8----7-----------|
|---------------------------------|--------------------------|
 PM   .  .     .            .  .




Verse

|---------------------------------|-------------------------------|
|---------------------------------|-------------------------------|
|---------------------------------|-------------------------------|
|--2--------9-----10--------------|--2--------9-----10--12--------|
|--0--0--0--7--0---8--------0--0--|--0--0--0--7--0---8--10--------|
|---------------------------------|-------------------------------|
 PM   .  .     .            .  .        .  .     .                 


|--------------------------------|----------------------------------|
|--------------------------------|----------------------------------|
|--------------------------------|----------------------------------|
|--------------9-----10----------|--------------9-----10--12--------|
|--0--0--0--0--7--0---8----------|--0--0--0--0--7--0---8--10--------|
|--------------------------------|----------------------------------|
PM .  .  .  .     .                 .  .  .  .     .


|--------------------------------|----------------------------------|
|--------------------------------|----------------------------------|
|--------------------------------|----------------------------------|
|--------------9-----10----------|--------------9-----10--12--------|
|--0--0--0--0--7--0---8----------|--0--0--0--0--7--0---8--10--------|
|--------------------------------|----------------------------------|
PM .  .  .  .     .                 .  .  .  .     .


|--------------------------------|----------------------------------|
|--------------------------------|----------------------------------|
|--------------------------------|----------------------------------|
|--------------9-----10----------|--------------9-----10--12--------|
|--0--0--0--0--7--0---8----------|--0--0--0--0--7--0---8--10--------|
|--------------------------------|----------------------------------|
PM .  .  .  .     .                 .  .  .  .     .



Pre-Chorus

|-------------------------------------|
|-------------------------------------|
|-------------------------------------|
|--7----5----10----9-9-9-9-9-9-9-9-9--|
|--5----3-----8----7-7-7-7-7-7-7-7-7--|
|-------------------------------------|



Chorus

|---------------------------------|------------------------------------|
|---------------------------------|------------------------------------|
|---------------------------------|------------------------------------|
|--2--------9-----10--------------|--2--------9-----10-----12----------|
|--0--0--0--7--0---8--------0--0--|--0--0--0--7--0---8--0--10----0--0--|
|---------------------------------|------------------------------------|
 PM   .  .     .            .  .        .  .     .      .        .  .  


|---------------------------------|--------------------------|
|---------------------------------|--------------------------|
|---------------------------------|--------------------------|
|--2--------9-----10--------------|--12----10----9-----------|
|--0--0--0--7--0---8--------0--0--|--10-----8----7-----------|
|---------------------------------|--------------------------|
 PM   .  .     .            .  .



Verse

|---------------------------------|----------------------------------|
|---------------------------------|----------------------------------|
|---------------------------------|----------------------------------|
|--2------------------------------|----------------------------------|
|--0--0--0--7--0---8--------0--0--|--0--0--0--0--7--0---8--10--------|
|---------------------------------|----------------------------------|
 PM   .  .     .            .  .     .  .  .  .     .


|--------------------------------|----------------------------------|
|--------------------------------|----------------------------------|
|--------------------------------|----------------------------------|
|--------------------------------|----------------------------------|
|--0--0--0--0--7--0---8----------|--0--0--0--0--7--0---8--10--------|
|--------------------------------|----------------------------------|
PM .  .  .  .     .                 .  .  .  .     .


|--------------------------------|----------------------------------|
|--------------------------------|----------------------------------|
|--------------------------------|----------------------------------|
|--------------------------------|----------------------------------|
|--0--0--0--0--7--0---8----------|--0--0--0--0--7--0---8--10--------|
|--------------------------------|----------------------------------|
PM .  .  .  .     .                 .  .  .  .     .


|--------------------------------|----------------------------------|
|--------------------------------|----------------------------------|
|--------------------------------|----------------------------------|
|--------------------------------|----------------------------------|
|--0--0--0--0--7--0---8----------|--0--0--0--0--7--0---8--10--------|
|--------------------------------|----------------------------------|
PM .  .  .  .     .                 .  .  .  .     .



Pre-Chorus

|----------------------|------------------------------|
|----------------------|------------------------------|
|----------------------|------------------------------|
|--7--5--10--9--9-7-5--|--2--------9-9-9-9-9-9-9-9-9--|
|--5--3--8---7--7-5-3--|--0--5--3--7-7-7-7-7-7-7-7-7--|
|----------------------|-----3--1---------------------|



Chorus

|---------------------------------|------------------------------------|
|---------------------------------|------------------------------------|
|---------------------------------|------------------------------------|
|--2--------9-----10--------------|--2--------9-----10-----12----------|
|--0--0--0--7--0---8--------0--0--|--0--0--0--7--0---8--0--10----0--0--|
|---------------------------------|------------------------------------|
 PM   .  .     .            .  .        .  .     .      .        .  .  


|---------------------------------|------------------------|
|---------------------------------|------------------------|
|---------------------------------|------------------------|
|--2--------9-----10--------------|------------------------|
|--0--0--0--7--0---8--------0--0--|--5-----3----2----------|
|---------------------------------|--3-----1----0----------|
 PM   .  .     .            .  .


|---------------------------------|------------------------------------|
|---------------------------------|------------------------------------|
|---------------------------------|------------------------------------|
|--2--------9-----10--------------|--2--------9-----10-----12----------|
|--0--0--0--7--0---8--------0--0--|--0--0--0--7--0---8--0--10----0--0--|
|---------------------------------|------------------------------------|
 PM   .  .     .            .  .        .  .     .      .        .  .  


|---------------------------------|------------------------|
|---------------------------------|------------------------|
|---------------------------------|------------------------|
|--2--------9-----10--------------|------------------------|
|--0--0--0--7--0---8--------0--0--|--5-----3----2----------|
|---------------------------------|--3-----1----0----------|
 PM   .  .     .            .  .


|------------------------|------------------------|
|------------------------|------------------------|
|------------------------|------------------------|
|------------------------|------------------------|
|--5-----3----2----------|--5-----3----2----------|
|--3-----1----0----------|--3-----1----0----------|



Bridge

|------------------------|--------------------------------------|
|------------------------|--------------------------------------|
|------------------------|--2--2--------------------------------|
|--2--2-----3~-----------|--0--0--------3--2--------2-----------|
|--0--0------------------|--------------------5--3-----5--3--2--|
|------------------------|--------------------------------------|
                                     PM .  .  .  .  .  .  .  .


|------------------------|--------------------------------------|
|------------------------|--------------------------------------|
|------------------------|--2--2--------------------------------|
|--2--2-----3~-----------|--0--0--------3--2--------2-----------|
|--0--0------------------|--------------------5--3-----5--3--2--|
|------------------------|--------------------------------------|
                                     PM .  .  .  .  .  .  .  .



Solo Rhythm

|--------------------|------------|--------------------|------------|
|--------------------|------------|--------------------|------------|
|--------------------|------------|--------------------|------------|
|--2-----------------|------------|--2-----------------|------------|
|--0----0-2-3-2-0----|--3----3-5--|--0----0-2-3-2-0----|--3----3-5--|
|-----------------3--|--1----1-3--|-----------------3--|--1----1-3--|


|--------------------------------|------------|
|--------------------------------|------------|
|--------------------------------|------------|
|--2------2------2---------------|------------|
|--0--0-0-0--0-0-0--0-2-3-2-0----|--3----3-5--|
|-----------------------------3--|--1----1-3--|
 PM   . .    . . 

|--------------------------------|------------|
|--------------------------------|------------|
|--------------------------------|------------|
|--2------2------2---------------|------------|
|--0--0-0-0--0-0-0--0-2-3-2-0----|--3---------|
|-----------------------------3--|--1---------|
 PM   . .    . . 


|-------------------------------|-------------------------------|
|-------------------------------|-------------------------------|
|-------------------------------|-------------------------------|
|-------------------------------|-------------------------------|
|--2------2------2------2-------|--3------3------3------3-------|
|--0--0-0-0--0-0-0--0-0-0--0-0--|--1--1-1-1--1-1-1--1-1-1--1-1--|
 PM   . .    . .    . .    . .        . .    . .    . .    . .

|-------------------------------|-------------------------------|
|-------------------------------|-------------------------------|
|-------------------------------|-------------------------------|
|-------------------------------|-------------------------------|
|--2------2------2------2-------|--3-------------5--------------|
|--0--0-0-0--0-0-0--0-0-0--0-0--|--1-------------3--------------|
 PM   . .    . .    . .    . .



Main/Chorus

|---------------------------------|------------------------------------|
|---------------------------------|------------------------------------|
|---------------------------------|------------------------------------|
|--2--------9-----10--------------|--2--------9-----10-----12----------|
|--0--0--0--7--0---8--------0--0--|--0--0--0--7--0---8--0--10----0--0--|
|---------------------------------|------------------------------------|
 PM   .  .     .            .  .        .  .     .      .        .  .  

|---------------------------------|------------------------------------|
|---------------------------------|------------------------------------|
|---------------------------------|------------------------------------|
|--2--------9-----10--------------|--2--------9-----10-----12----------|
|--0--0--0--7--0---8--------0--0--|--0--0--0--7--0---8--0--10----0--0--|
|---------------------------------|------------------------------------|
 PM   .  .     .            .  .        .  .     .      .        .  .  



Chorus

|---------------------------------|------------------------------------|
|---------------------------------|------------------------------------|
|---------------------------------|------------------------------------|
|--2--------9-----10--------------|--2--------9-----10-----12----------|
|--0--0--0--7--0---8--------0--0--|--0--0--0--7--0---8--0--10----0--0--|
|---------------------------------|------------------------------------|
 PM   .  .     .            .  .        .  .     .      .        .  .  


|---------------------------------|--------------------------|
|---------------------------------|--------------------------|
|---------------------------------|--------------------------|
|--2--------9-----10--------------|--12----10----9-----------|
|--0--0--0--7--0---8--------0--0--|--10-----8----7-----------|
|---------------------------------|--------------------------|
 PM   .  .     .            .  .


|---------------------------------|------------------------------------|
|---------------------------------|------------------------------------|
|---------------------------------|------------------------------------|
|--2--------9-----10--------------|--2--------9-----10-----12----------|
|--0--0--0--7--0---8--------0--0--|--0--0--0--7--0---8--0--10----0--0--|
|---------------------------------|------------------------------------|
 PM   .  .     .            .  .        .  .     .      .        .  .  


|---------------------------------|--------------------------|
|---------------------------------|--------------------------|
|---------------------------------|--------------------------|
|--2--------9-----10--------------|--12----10----9-----------|
|--0--0--0--7--0---8--------0--0--|--10-----8----7-----------|
|---------------------------------|--------------------------|
 PM   .  .     .            .  .



Outro

|--------------|-----------------------------------------|
|--------------|-----------------------------------------|
|--------------|-----------------------------------------|
|--2--4--5--7--|--9--10--12--14-14-14-14-14-14-14-14-14--|
|--0--2--3--5--|--7---8--10--12-12-12-12-12-12-12-12-12--|
|--------------|-----------------------------------------|



Добавлено: 18.10.2015
Другие материалы по этой песне:

Страница создана 18.10.2015
http://primanota.ru/black-knight/master-of-disaster-chords.htm
Привет, Гость.
Предлагаем пройти революционный курс по гитаре.
Подарок от PrimaNota.Ru, забирай!