PrimaNota.ru - самый крупный в мире бесплатный архив песенных текстов, аккордов, табулатур и нот


Black Knight - Fire In Your Eyes - таба, видео

Регистрация Запомнить меня
Войти через:  Facebook Google Twitter Vk Yandex Mail.ru

Black Knight - Fire In Your Eyes - таба, видео

Печатать
Просмотров: 125
Artist: Black Knight
Song: Fire In Your Eyes
Album: Master of Disaster
Tuning: Standard


Intro

|------------------------------|------------------------------|
|------------------------------|------------------------------|
|------------------------------|------------------------------|
|--2-------5-----4-------------|--2-------5-----4-------------|
|--2--------------------5h7-5--|--2--------------------5~~----|
|--0---------0-0---0-0---------|--0---------0-0---0-0---------|
         PM  . .   . .                  PM  . .   . .


|------------------------------|------------------------------|
|------------------------------|------------------------------|
|------------------------------|------------------------------|
|--2-------5-----4-------------|--2---------------------------|
|--2--------------------5h7-5--|--2------------------7--5--4--|
|--0---------0-0---0-0---------|--0------------------5--3--2--|
         PM  . .   . .


|------------------------------|------------------------------|
|------------------------------|------------------------------|
|------------------------------|------------------------------|
|----------5-----4-------------|----------5-----4-------------|
|-----------------------5h7-5--|-----------------------5~~----|
|--0--0-0----0-0---0-0---------|--0--0-0----0-0---0-0---------|
PM    . .    . .   . .         PM    . .    . .   . .



|------------------------------|------------------------------|
|------------------------------|------------------------------|
|------------------------------|------------------------------|
|----------5-----4-------------|----------5-----------9-------|
|-----------------------5h7-5--|-------------7--5--4--7-------|
|--0--0-0----0-0---0-0---------|--0--0-0-----5--3--2--0-------|
PM    . .    . .   . .         PM    . .





Verse

||----------||-------|
||----------||-------|
||----------||-------|
||--7--9----||--9-7--|
||--5--7----||--7-5--|
||-----0----||-------|
          x4


Chorus

|---------------------|---------------------|
|---------------------|---------------------|
|---------------------|---------------------|
|--5--------2--2h4-5--|--7--------4--4h5-7--|
|--3----3h5-----------|--5----5h7-----------|
|---------------------|---------------------|


|------------------------------|------------------------------|
|------------------------------|------------------------------|
|------------------------------|------------------------------|
|----------5-----4-------------|----------5-----4-------------|
|-----------------------5h7-5--|-----------------------5~~----|
|--0--0-0----0-0---0-0---------|--0--0-0----0-0---0-0---------|
PM    . .    . .   . .         PM    . .    . .   . .


|------------------|----------|
|------------------|----------|
|------------------|----------|
|--5----7-7-7-7-7--|--9--2----|
|--3----5-5-5-5-5--|--7--2----|
|------------------|-----0----|


Verse

||----------------------------------------------------------------||
||----------------------------------------------------------------||
||----------------------------------------------------------------||
||-----------------------4-5-7------------------------------------||
||---------5-7---------------------------5-7----------------------||
||--0--0-0--------0--0-0----------0--0-0--------0--0-2-3-5-3-2----||
 PM .  . .        .  . .          .  . .        .  . . .   . . 



Chorus

|------------------|---------------------|
|------------------|---------------------|
|------------------|---------------------|
|--5----7----7--7--|--5----7----5-4------|
|--3----5----5--5--|--3----5--------7-5--|
|------------------|---------------------|


|------------|----------|
|------------|----------|
|------------|----------|
|--5----7-7--|--7--9----|
|--3----5-5--|--5--7----|
|------------|----------|


|------------------------------|----------------------------|
|------------------------------|----------------------------|
|----------7-----6-------------|----------7-----6-----------|
|----------5-----4------7/9----|----------5-----4------7----|
|-----------------------5/7----|-----------------------5----|
|--0--0-0----0-0---0-0---------|--0--0-0----0-0---0-0-------|
PM    . .    . .   . .         PM    . .    . .   . .


|---------------------|---------------------|
|---------------------|---------------------|
|---------------------|---------------------|
|--5--------2--2h4-5--|--7--------4--4h5-7--|
|--3----3h5-----------|--5----5h7-----------|
|---------------------|---------------------|


|------------------------------|----------------------------|
|------------------------------|----------------------------|
|----------7-----6-------------|----------7-----6-----------|
|----------5-----4------7/9----|----------5-----4------7----|
|-----------------------5/7----|-----------------------5----|
|--0--0-0----0-0---0-0---------|--0--0-0----0-0---0-0-------|
PM    . .    . .   . .         PM    . .    . .   . .


|---------------------|------------------|
|---------------------|------------------|
|---------------------|------------------|
|--5--------2--2h4-5--|--7-7-7-7-7----9--|
|--3----3h5-----------|--5-5-5-5-5----7--|
|---------------------|------------------|



Bridge


|---------------------------------|---------------------------------|
|---------------------------------|---------------------------------|
|---------------------------------|---------------------------------|
|--9-----9-----9-----9-----9-9-9--|--9-----9-----9-----9-----9-9-9--|
|--7-----7-----7-----7-----7-7-7--|--7-----7-----7-----7-----7-7-7--|
|----0-0---0-0---0-0---0-0--------|----0-0---0-0---0-0---0-0--------|
PM   . .   . .   . .   . .             . .   . .   . .   . . 


|---------------------------------|---------------------------------|
|---------------------------------|---------------------------------|
|---------------------------------|---------------------------------|
|--7-----7-----7-----7-----7-7-7--|--9-----9-----9-----9-----7---7--|
|--5-----5-----5-----5-----5-5-5--|--7-----7-----7-----7-----5---5--|
|----0-0---0-0---0-0---0-0--------|----0-0---0-0---0-0---0-0--------|
PM   . .   . .   . .   . .             . .   . .   . .   . . 


|---------------------------------|---------------------------------|
|---------------------------------|---------------------------------|
|---------------------------------|---------------------------------|
|--9-----9-----9-----9-----9-9-9--|--7-----7-----7-----7-----7-7-7--|
|--7-----7-----7-----7-----7-7-7--|--5-----5-----5-----5-----5-5-5--|
|----0-0---0-0---0-0---0-0--------|----0-0---0-0---0-0---0-0--------|
PM   . .   . .   . .   . .             . .   . .   . .   . . 


|-----------------------------------|---------------------------------|
|-----------------------------------|---------------------------------|
|-----------------------------------|---------------------------------|
|--5-----5-----5-5-7-----7-----7-7--|--9-----9-----9-----9-----7---7--|
|--3-----3-----3-3-5-----5-----5-5--|--7-----7-----7-----7-----5---5--|
|----0-0---0-0-------0-0---0-0------|----0-0---0-0---0-0---0-0--------|
PM   . .   . .       . .   . .           . .   . .   . .   . .


|---------------------------------|---------------------------------|
|---------------------------------|---------------------------------|
|---------------------------------|---------------------------------|
|--9-----9-----9-----9-----9-9-9--|--7-----7-----7-----7-----7-7-7--|
|--7-----7-----7-----7-----7-7-7--|--5-----5-----5-----5-----5-5-5--|
|----0-0---0-0---0-0---0-0--------|----0-0---0-0---0-0---0-0--------|
PM   . .   . .   . .   . .             . .   . .   . .   . . 


|----------------------------|-----------------------------|
|----------------------------|-----------------------------|
|----------------------------|-----------------------------|
|--5-5-5-5----5--5----5-5----|--7-7-7-7----7--7----7-------|
|--3-3-3-3----3--3----3-3-5--|--5-5-5-5----5--5----5-10-9--|
|-------------------------3--|-----------------------8--7--|
    



Solo Rhythm


|---------------------------|---------------------------|
|---------------------------|---------------------------|
|---------------------------|---------------------------|
|---------------------------|---------------------------|
|--7-----7-----7-----7------|--5-----5-----5-----5------|
|--5-5-5-5-5-5-5-5-5-5-5-5--|--3-3-3-3-3-3-3-3-3-3-3-3--|
PM   . .   . .   . .   . .       . .   . .   . .   . . 

|---------------------------|---------------------------|
|---------------------------|---------------------------|
|---------------------------|---------------------------|
|---------------------------|---------------------------|
|--3-----3-----3-----3------|--2-----2-----2---3---5----|
|--1-1-1-1-1-1-1-1-1-1-1-1--|--0-0-0-0-0-0-0---1---3----|
PM   . .   . .   . .   . .       . .   . . 

|---------------------------|---------------------------|
|---------------------------|---------------------------|
|---------------------------|---------------------------|
|---------------------------|---------------------------|
|--7-----7-----7-----7------|--5-----5-----5-----5------|
|--5-5-5-5-5-5-5-5-5-5-5-5--|--3-3-3-3-3-3-3-3-3-3-3-3--|
PM   . .   . .   . .   . .       . .   . .   . .   . . 

|---------------------------|
|---------------------------|
|---------------------------|
|---------------------------|
|--3-----3-----3-----3------|
|--1-1-1-1-1-1-1-1-1-1-1-1--|
PM   . .   . .   . .   . . 


|--------------------------------------------------------|
|--------------------------------------------------------|
|-----------------------------------------------7-6------|
|----9-7-9-7-9----9-7-9-7-9----9-7-9-7-9----9-7-5-4-7----|
|----7-5-7-5-7----7-5-7-5-7----7-5-7-5-7----7-5-----5----|
|--0-----------------------------------------------------|



Chorus


|------------------|---------------------|
|------------------|---------------------|
|------------------|---------------------|
|--5----7----7--7--|--5----7----5-4------|
|--3----5----5--5--|--3----5--------7-5--|
|------------------|---------------------|


|------------|----------|
|------------|----------|
|------------|----------|
|--5----7-7--|--7--9----|
|--3----5-5--|--5--7----|
|------------|----------|


|------------------------------|------------------------------|
|------------------------------|------------------------------|
|------------------------------|------------------------------|
|----------5-----4-------------|----------5-----4-------------|
|-----------------------5h7-5--|-----------------------5~~----|
|--0--0-0----0-0---0-0---------|--0--0-0----0-0---0-0---------|
PM    . .    . .   . .         PM    . .    . .   . .


|---------------------|---------------------|
|---------------------|---------------------|
|---------------------|---------------------|
|--5--------2--2h4-5--|--7--------4--4h5-7--|
|--3----3h5-----------|--5----5h7-----------|
|---------------------|---------------------|


|------------------------------|------------------------------|
|------------------------------|------------------------------|
|------------------------------|------------------------------|
|----------5-----4-------------|----------5-----4-------------|
|-----------------------5h7-5--|-----------------------5~~----|
|--0--0-0----0-0---0-0---------|--0--0-0----0-0---0-0---------|
PM    . .    . .   . .         PM    . .    . .   . .


|------------------|
|------------------|
|------------------|
|--5----7----7--7--|
|--3----5----5--5--|
|------------------|



Outro


|--------------------------|--------------------------|
|--------------------------|--------------------------|
|--------------------------|--------------------------|
|--5----------5-----5---5--|--4----------4-----4---4--|
|-----7-------7-----7---7--|-----5-------5-----5---5--|
|-------0-0-0---0-0---0----|-------0-0-0---0-0---0----|
 PM     . . .   . .   .            . . .   . .   .


|--------------------------|--------------------------|
|--------------------------|--------------------------|
|--------------------------|--------------------------|
|--5----------5-----5---5--|--7---5---4---------------|
|-----7-------7-----7---7--|--------------7---5-------|
|-------0-0-0---0-0---0----|--------------------------|
 PM     . . .   . .   .


|--------------------------|--------------------------|
|--------------------------|--------------------------|
|--------------------------|--------------------------|
|--5----------5-----5---5--|--4----------4-----4---4--|
|-----7-------7-----7---7--|-----5-------5-----5---5--|
|-------0-0-0---0-0---0----|-------0-0-0---0-0---0----|
 PM     . . .   . .   .            . . .   . .   .


|--------------------------|--------------------------|
|--------------------------|--------------------------|
|--------------------------|--------------------------|
|--5----------5-----5---5--|--7---5---4-----------9\--|
|-----7-------7-----7---7--|--------------7---5---7\--|
|-------0-0-0---0-0---0----|----------------------0---|
 PM     . . .   . .   .



Добавлено: 18.10.2015
Другие материалы по этой песне:

Страница создана 18.10.2015
http://primanota.ru/black-knight/fire-in-your-eyes-chords.htm
Привет, Гость.
Предлагаем пройти революционный курс по гитаре.
Подарок от PrimaNota.Ru, забирай!