PrimaNota.ru - самый крупный в мире бесплатный архив песенных текстов, аккордов, табулатур и нот


Black Knight - Dead Of Knight - таба, видео

Регистрация Запомнить меня
Войти через:  Facebook Google Twitter Vk Yandex Mail.ru

Black Knight - Dead Of Knight - таба, видео

Печатать
Просмотров: 139
Artist: Black Knight
Song: Dead of Knight
Album: Master of Disaster
Tuning: Standard


Intro

-----------------------------------|---------------------------------------|
-----------------------------------|---------------------------------------|
-----------------------------------|---------------------------------------|
-----------------------------------|---------------------------------------|
------9-----9-----9-----9-----9----|------10-----10------10-----10-----10--|
--7-7---7-7---7-7---7-7---7-7------|--7-7----7-7-----7-7----7-7----7-7-----|
PM. .   . .   . .   . .   . .         . .    . .     . .    . .    . .

-----------------------------------|---------------------------------------|
-----------------------------------|---------------------------------------|
------------5-----7-----4----4h5p4-|---------------------------------------|
------7----------------------------|---------------------------------------|
--0-0---0-0---0-0---0-0---0-0------|------9-----9-----9-----9--7-----------|
-----------------------------------|--7-7---7-7---7-7---7-7----5-----------|
PM. .   . .   . .   . .   . .         . .   . .   . .   . .    




-----------------------------------|---------------------------------------|
-----------------------------------|---------------------------------------|
-----------------------------------|---------------------------------------|
-----------------------------------|---------------------------------------|
------9-----9-----9-----9-----9----|------10-----10------10-----10-----10--|
--7-7---7-7---7-7---7-7---7-7------|--7-7----7-7-----7-7----7-7----7-7-----|
PM. .   . .   . .   . .   . .         . .    . .     . .    . .    . .

-----------------------------------|---------------------------------------|
-----------------------------------|---------------------------------------|
------------5-----7-----4----4h5p4-|---------------------------------------|
------7----------------------------|---------------------------------------|
--0-0---0-0---0-0---0-0---0-0------|------9-----9-----9-----9--7-----------|
-----------------------------------|--7-7---7-7---7-7---7-7----5-----------|
PM. .   . .   . .   . .   . .         . .   . .   . .   . .    




-----------------------------------|---------------------------------------|
-----------------------------------|---------------------------------------|
-----------------------------------|---------------------------------------|
-----------------------------------|---------------------------------------|
------9-----9-----9-----9-----9----|------10-----10------10-----10-----10--|
--7-7---7-7---7-7---7-7---7-7------|--7-7----7-7-----7-7----7-7----7-7-----|
PM. .   . .   . .   . .   . .         . .    . .     . .    . .    . .

-----------------------------------|---------------------------------------|
-----------------------------------|---------------------------------------|
------------5-----7-----4----4h5p4-|---------------------------------------|
------7----------------------------|---------------------------------------|
--0-0---0-0---0-0---0-0---0-0------|---------------------------------------|
-----------------------------------|--7~~~~--------------------------------|
PM. .   . .   . .   . .   . .          



Bridge I (Gtr 1, 2, 3)

---------------|---------------|---------------|---------------|
---------------|---------------|---------------|---------------|
----6-7-9-6-7--|----6-7-9-6-7--|----6-7-9-6-7--|----6-7-9-6-7--|
---------------|---------------|---------------|---------------|
--9------------|--9------------|--7------------|--9------------|
--7------------|--7------------|--5------------|--7------------|


---------------|---------------|---------------|---------------|-----------|
----5-7-8-5-7--|----5-7-8-5-7--|----5-7-8-7-5--|--3------------|-----------|
----6-7-9-6-7--|----6-7-9-6-7--|----6-7-9-7-6--|--4------------|-----------|
---------------|---------------|---------------|---------------|-----7-----|
--9------------|--9------------|--7------------|--9------------|--4--5--7--|
--7------------|--7------------|--5------------|--7------------|--2-----5--|



Verse

-----------------------------------|---------------------------------------|
-----------------------------------|---------------------------------------|
-----------------------------------|---------------------------------------|
-----------------------------------|---------------------------------------|
------9-----9-----9-----9-----9----|------10-----10------10-----10-----10--|
--7-7---7-7---7-7---7-7---7-7------|--7-7----7-7-----7-7----7-7----7-7-----|
PM. .   . .   . .   . .   . .         . .    . .     . .    . .    . .

-----------------------------------|---------------------------------------|
-----------------------------------|---------------------------------------|
------------5-----7-----4----4h5p4-|---------------------------------------|
------7----------------------------|----------------------7----------------|
--0-0---0-0---0-0---0-0---0-0------|------9-----9----4----5----7-----------|
-----------------------------------|--7-7---7-7------2---------5-----------|
PM. .   . .   . .   . .   . .         . .   . .


-----------------------------------|---------------------------------------|
-----------------------------------|---------------------------------------|
-----------------------------------|---------------------------------------|
-----------------------------------|---------------------------------------|
------9-----9-----9-----9-----9----|------10-----10------10-----10-----10--|
--7-7---7-7---7-7---7-7---7-7------|--7-7----7-7-----7-7----7-7----7-7-----|
PM. .   . .   . .   . .   . .         . .    . .     . .    . .    . .

-----------------------------------|---------------------------------------|
-----------------------------------|---------------------------------------|
------------5-----7-----4----4h5p4-|---------------------------------------|
------7----------------------------|------------------------7--------------|
--0-0---0-0---0-0---0-0---0-0------|------9-----9------4----5----7---------|
-----------------------------------|--7-7---7-7---7-7--2---------5---------|
PM. .   . .   . .   . .   . .         . .   . .   . .



-----------------------------------|---------------------------------------|
-----------------------------------|---------------------------------------|
-----------------------------------|---------------------------------------|
-----------------------------------|---------------------------------------|
------9-----9-----9-----9-----9----|------10-----10------10-----10-----10--|
--7-7---7-7---7-7---7-7---7-7------|--7-7----7-7-----7-7----7-7----7-7-----|
PM. .   . .   . .   . .   . .         . .    . .     . .    . .    . .

-----------------------------------|---------------------------------------|
-----------------------------------|---------------------------------------|
------------5-----7-----4----4h5p4-|---------------------------------------|
------7----------------------------|----------------------7----------------|
--0-0---0-0---0-0---0-0---0-0------|------9-----9----4----5----7-----------|
-----------------------------------|--7-7---7-7------2---------5-----------|
PM. .   . .   . .   . .   . .         . .   . .




Chorus

-------------------------------------------|
-------------------------------------------|
-------------------------------------------|
-----7-----------7-------------------------|
--9--5--7--9--5--5--7-7----7---7-7----7----|
--7-----5--7--3-----5-5--5-5-5-5-5--5-5-5--|
                       PM.   .      .   .


------------------------------------------------|
------------------------------------------------|
------------------------------------------------|
-----7------------------------------------------|
--9--5--7--9--5--4------9-----9-----9-----9--7--|
--7-----5--7--3--2--7-7---7-7---7-7---7-7----5--|
                  PM. .   . .   . .   . .


Verse

-----------------------------------|---------------------------------------|
-----------------------------------|---------------------------------------|
-----------------------------------|---------------------------------------|
-----------------------------------|---------------------------------------|
------9-----9-----9-----9-----9----|------10-----10------10-----10-----10--|
--7-7---7-7---7-7---7-7---7-7------|--7-7----7-7-----7-7----7-7----7-7-----|
PM. .   . .   . .   . .   . .         . .    . .     . .    . .    . .

-----------------------------------|---------------------------------------|
-----------------------------------|---------------------------------------|
------------5-----7-----4----4h5p4-|---------------------------------------|
------7----------------------------|----------------------7----------------|
--0-0---0-0---0-0---0-0---0-0------|------9-----9----4----5----7-----------|
-----------------------------------|--7-7---7-7------2---------5-----------|
PM. .   . .   . .   . .   . .         . .   . .


-----------------------------------|---------------------------------------|
-----------------------------------|---------------------------------------|
-----------------------------------|---------------------------------------|
-----------------------------------|---------------------------------------|
------9-----9-----9-----9-----9----|------10-----10------10-----10-----10--|
--7-7---7-7---7-7---7-7---7-7------|--7-7----7-7-----7-7----7-7----7-7-----|
PM. .   . .   . .   . .   . .         . .    . .     . .    . .    . .

-----------------------------------|---------------------------------------|
-----------------------------------|---------------------------------------|
------------5-----7-----4----4h5p4-|---------------------------------------|
------7----------------------------|----------------------7----------------|
--0-0---0-0---0-0---0-0---0-0------|------9-----9----4----5----7-----------|
-----------------------------------|--7-7---7-7------2---------5-----------|
PM. .   . .   . .   . .   . .         . .   . .



Bridge II

--------------------------------------------|
--------------------------------------------|
--7----9----9b10-6----7----9-7----9---------|
---------------------------------------9----|
--------------------------------------------|
--------------------------------------------|

(Gtr 2)
--------------------------------------------|
--------------------------------------------|
--------------------------------------------|
--7----9---------6----7------7----9---------|
--5----7---------4----5------5----7----9----|
---------------------------------------7----|




--------------------------------------------|
--------------------------------------------|
--7----9----9b10-6----7----9-7----6---------|
---------------------------------------9----|
--------------------------------------------|
--------------------------------------------|

(Gtr 2)
--------------------------------------------|
--------------------------------------------|
--------------------------------------------|
--7----9---------6----7------7----6---------|
--5----7---------4----5------5----4----9----|
---------------------------------------7----|


------------------------|
------------------------|
------------------------|
-------7----------------|
--4----5----7-----------|
--2---------5-----------|



Chorus

-------------------------------------------|
-------------------------------------------|
-------------------------------------------|
-----7-----------7-------------------------|
--9--5--7--9--5--5--7-7----7---7-7----7----|
--7-----5--7--3-----5-5--5-5-5-5-5--5-5-5--|
                       PM.   .      .   .


-----------------------|
-----------------------|
-----------------------|
-----7-----------------|
--9--5--7--9--5--4--2--|
--7-----5--7--3--2--0--|
                  


Bridge I (Gtr 1, 2, 3)

---------------|---------------|---------------|---------------|
---------------|---------------|---------------|---------------|
----6-7-9-6-7--|----6-7-9-6-7--|----6-7-9-6-7--|----6-7-9-6-7--|
---------------|---------------|---------------|---------------|
--9------------|--9------------|--7------------|--9------------|
--7------------|--7------------|--5------------|--7------------|


---------------|---------------|---------------|---------------|-----------|
----5-7-8-5-7--|----5-7-8-5-7--|----5-7-8-7-5--|--3------------|-----------|
----6-7-9-6-7--|----6-7-9-6-7--|----6-7-9-7-6--|--4------------|-----------|
---------------|---------------|---------------|---------------|-----7-----|
--9------------|--9------------|--7------------|--9------------|--4--5--7--|
--7------------|--7------------|--5------------|--7------------|--2-----5--|


Solo Rhythm

-----------------------------------------------|
-----------------------------------------------|
-----------------------------------------------|
-----------------------------------------------|
--9-9----9----9-9----9----9-9----9----12-11-9--|
--7-7--7-7-7--7-7--7-7-7--7-7--7-7-7--10--9-7--|
PM     .   .       .   .       .   .   

-----------------------------------------------|
-----------------------------------------------|
-----------------------------------------------|
-----------------------------------------7-----|
--7-7----7----7-7----7----2-----------4--5--7--|
--5-5--5-5-5--5-5--5-5-5--0-----------2-----5--|
PM     .   .       .   . 


-----------------------------------------------|
-----------------------------------------------|
-----------------------------------------------|
-----------------------------------------------|
--9-9----9----9-9----9----9-9----9----12-11-9--|
--7-7--7-7-7--7-7--7-7-7--7-7--7-7-7--10--9-7--|
PM     .   .       .   .       .   .   

-----------------------------------------------|
-----------------------------------------------|
-----------------------------------------------|
-----------------------------------------7-----|
--7-7----7----7-7----7----9-----------4--5--7--|
--5-5--5-5-5--5-5--5-5-5--7-----------2-----5--|
PM     .   .       .   . 

-----------------------------------------------|
-----------------------------------------------|
-----------------------------------------------|
-----------------------------------------------|
--9-9----9----9-9----9----9-9----9----12-11-9--|
--7-7--7-7-7--7-7--7-7-7--7-7--7-7-7--10--9-7--|
PM     .   .       .   .       .   .   

-----------------------------------------------|
-----------------------------------------------|
-----------------------------------------------|
-----------------------------------------------|
--7-7----7----7-7----7-------4--5--6--5--6--7--|
--5-5--5-5-5--5-5--5-5-5-----2--3--4--3--4--5--|
PM     .   .       .   . 
 
-----------------------------------------------|
-----------------------------------------------|
-----------------------------------------------|
-----------------------------------------------|
--9-9----9----9-9----9----9-9----9----12-11-9--|
--7-7--7-7-7--7-7--7-7-7--7-7--7-7-7--10--9-7--|
PM     .   .       .   .       .   .   

-----------------------------------------------|
-----------------------------------------------|
-----------------------------------------------|
-----------------------------------------------|
--7-7----7----7-7----7-------4--5--6--5--6--7--|
--5-5--5-5-5--5-5--5-5-5-----2--3--4--3--4--5--|
PM     .   .       .   . 

-----------------------------------------------|
-----------------------------------------------|
-----------------------------------------------|
-----------------------------------------------|
--5--6--7--6--7--8--9--------------------------|
--3--4--5--4--5--6--7--------------------------|




Intro

-----------------------------------|---------------------------------------|
-----------------------------------|---------------------------------------|
-----------------------------------|---------------------------------------|
-----------------------------------|---------------------------------------|
------9-----9-----9-----9-----9----|------10-----10------10-----10-----10--|
--7-7---7-7---7-7---7-7---7-7------|--7-7----7-7-----7-7----7-7----7-7-----|
PM. .   . .   . .   . .   . .         . .    . .     . .    . .    . .

-----------------------------------|---------------------------------------|
-----------------------------------|---------------------------------------|
------------5-----7-----4----4h5p4-|---------------------------------------|
------7----------------------------|---------------------------------------|
--0-0---0-0---0-0---0-0---0-0------|------9-----9-----9-----9--7-----------|
-----------------------------------|--7-7---7-7---7-7---7-7----5-----------|
PM. .   . .   . .   . .   . .         . .   . .   . .   . .    




-----------------------------------|---------------------------------------|
-----------------------------------|---------------------------------------|
-----------------------------------|---------------------------------------|
-----------------------------------|---------------------------------------|
------9-----9-----9-----9-----9----|------10-----10------10-----10-----10--|
--7-7---7-7---7-7---7-7---7-7------|--7-7----7-7-----7-7----7-7----7-7-----|
PM. .   . .   . .   . .   . .         . .    . .     . .    . .    . .

-----------------------------------|---------------------------------------|
-----------------------------------|---------------------------------------|
------------5-----7-----4----4h5p4-|---------------------------------------|
------7----------------------------|---------------------------------------|
--0-0---0-0---0-0---0-0---0-0------|------9-----9-----9-----9--7-----------|
-----------------------------------|--7-7---7-7---7-7---7-7----5-----------|
PM. .   . .   . .   . .   . .         . .   . .   . .   . .    




-----------------------------------|---------------------------------------|
-----------------------------------|---------------------------------------|
-----------------------------------|---------------------------------------|
-----------------------------------|---------------------------------------|
------9-----9-----9-----9-----9----|------10-----10------10-----10-----10--|
--7-7---7-7---7-7---7-7---7-7------|--7-7----7-7-----7-7----7-7----7-7-----|
PM. .   . .   . .   . .   . .         . .    . .     . .    . .    . .

-----------------------------------|---------------------------------------|
-----------------------------------|---------------------------------------|
------------5-----7-----4----4h5p4-|---------------------------------------|
------7----------------------------|----------------------7----------------|
--0-0---0-0---0-0---0-0---0-0------|------9-----9----4----5----7-----------|
-----------------------------------|--7-7---7-7------2---------5-----------|
PM. .   . .   . .   . .   . .         . .   . .        




Chorus/Outro


-------------------------------------------|
-------------------------------------------|
-------------------------------------------|
-----7-----------7-------------------------|
--9--5--7--9--5--5--7-7----7---7-7----7----|
--7-----5--7--3-----5-5--5-5-5-5-5--5-5-5--|
                       PM.   .      .   .


-------------------------------------------|
-------------------------------------------|
-------------------------------------------|
-----7-------------------------------7-----|
--9--5--7--9--5--4------9-----9---4--5--7--|
--7-----5--7--3--2--7-7---7-7-----2-----5--|
                  PM. .   . .



-------------------------------------------|
-------------------------------------------|
-------------------------------------------|
-----7-----------7-------------------------|
--9--5--7--9--5--5--7-7----7---7-7----7----|
--7-----5--7--3-----5-5--5-5-5-5-5--5-5-5--|
                       PM.   .      .   .


------------------------------|
------------------------------|
------------------------------|
-----7------------------------|
--9--5--7--9----5------4------|
--7-----5--7----3------2------|


--------------------------||------|
--------------------------||------|
--------------------------||------|
--------------------------||------|
--9-9-9-9-9-9-9-9-9-9--7--||--9\--|
--7-7-7-7-7-7-7-7-7-7--5--||--7\--|
Добавлено: 18.10.2015
Другие материалы по этой песне:

Страница создана 18.10.2015
http://primanota.ru/black-knight/dead-of-knight-chords.htm
Привет, Гость.
Предлагаем пройти революционный курс по гитаре.
Подарок от PrimaNota.Ru, забирай!