PrimaNota.ru - самый крупный в мире бесплатный архив песенных текстов, аккордов, табулатур и нот


Black Knight - Day Of The Wizard - таба, видео

Регистрация Запомнить меня
Войти через:  Facebook Google Twitter Vk Yandex Mail.ru

Black Knight - Day Of The Wizard - таба, видео

Печатать
Просмотров: 141
Artist: Black Knight
Song: Day of the Wizard
Album: Master of Disaster
Tuning: Standard


Intro

||-------------------------------------------||
||-------------------------------------------||
||-------------------------------------------||
||--9--9-9-9-9-7--7-7-7-7-5--5-5-5-5-4--5-7--||
||--7--7-7-7-7-5--5-5-5-5-3--3-3-3-3-2--3-5--||
||-------------------------------------------||


||---------------||-------|
||---------------||-------|
||---------------||-------|
||--9-7-5-4-5-7--||-------|
||--7-5-3-2-3-5--||--7----|
||---------------||--5----|



Verse I


|--------------------------------------------------------------------------|
|--------------------------------------------------------------------------|
|--------------------------------------------------------------------------|
|--------------------------------------------------------------------------|
|--------------------------------------------------------------------------|
|--0-0-0-0-0-0-0--0-0-0-0-0--0-0-0-0-0--0-0-0-0-0--0-0-0-0-0-0--0-0-0-0-0--|
PM . . . . . . .  . . . . .  . . . . .  . . . . .  . . . . . .  . . . . .

|---------------|
|---------------|
|---------------|
|--5-4-5-7-5-7--|
|--3-2-3-5-3-5--|
|---------------|


|-------------------------------------------------------------------------|
|-------------------------------------------------------------------------|
|-------------------------------------------------------------------------|
|-------------------------------------------------------------------------|
|-------------------------------------------------------------------------|
|--0--0-0-0-0-0--0-0-0-0-0--0-0-0-0-0--0-0-0-0-0--0-0-0-0-0-0--0-0-0-0-0--|
PM .  . . . . .  . . . . .  . . . . .  . . . . .  . . . . . .  . . . . .

|---------------|
|---------------|
|---------------|
|--5-4-5-7-5-7--|
|--3-2-3-5-3-5--|
|---------------|


*Gtr 2 comes in
||-------------------------||
||-------------------------||
||-------------------------||
||--9-9--------------------||
||--7-7--------------------||
||------0-0-0-0-0-0-0-0-0--||
     PM . . . . . . . . .

|---------------|
|---------------|
|---------------|
|--5-4-5-7-5-7--|
|--3-2-3-5-3-5--|
|---------------|



Verse II

|-------------------------------------------------------------------------|
|-------------------------------------------------------------------------|
|-------------------------------------------------------------------------|
|-------------------------------------------------------------------------|
|-------------------------------------------------------------------------|
|--0--0-0-0-0-0--0-0-0-0-0--0-0-0-0-0--0-0-0-0-0--0-0-0-0-0-0--0-0-0-0-0--|
PM .  . . . . .  . . . . .  . . . . .  . . . . .  . . . . . .  . . . . .

|----------------------|
|----------------------|
|----------------------|
|----------------4--7--|
|----------------2--5--|
|--0--0-0-0-0-0--------|
PM .  . . . . .


||----------------------||
||----------------------||
||----------------------||
||---------------9-7-9--||
||---------------7-5-7--||
||--0--0-0-0-0-0--------||
 PM .  . . . . .

|---------------------|
|---------------------|
|---------------------|
|----------------9-7--|
|----------------7-5--|
|--0--0-0-0-0-0-------|
PM .  . . . . .


Chorus

|--------------------------------|------------------------------------------|
|--------------------------------|------------------------------------------|
|--------------------------------|------------------------------------------|
|--5----4--------------5----4----|-------------------7-------------------7--|
|--3----2----5----7----3----2----|-------------------5-------------------5--|
|------------3----5--------------|--0--0-0-0-0-0--0-----0--0-0-0-0-0--0-----|
                                 PM .  . . . . .  .     .  . . . . .  .


Verse II

|-------------------------------------------------------------------------|
|-------------------------------------------------------------------------|
|-------------------------------------------------------------------------|
|-------------------------------------------------------------------------|
|-------------------------------------------------------------------------|
|--0--0-0-0-0-0--0-0-0-0-0--0-0-0-0-0--0-0-0-0-0--0-0-0-0-0-0--0-0-0-0-0--|
PM .  . . . . .  . . . . .  . . . . .  . . . . .  . . . . . .  . . . . .

|----------------------|
|----------------------|
|----------------------|
|----------------4--7--|
|----------------2--5--|
|--0--0-0-0-0-0--------|
PM .  . . . . .


||----------------------||
||----------------------||
||----------------------||
||---------------9-7-9--||
||---------------7-5-7--||
||--0--0-0-0-0-0--------||
 PM .  . . . . .

|---------------------|
|---------------------|
|---------------------|
|----------------9-7--|
|----------------7-5--|
|--0--0-0-0-0-0-------|
PM .  . . . . .



Chorus

|--------------------------------|--------------------------------------------|
|--------------------------------|--------------------------------------------|
|--------------------------------|--------------------------------------------|
|--2----0--------------2----0----|--9-9-9-9-9-9-9----7----9-9-9-9-9-9-9----7--|
|--3----2----2----4----3----2----|--7-7-7-7-7-7-7----5----7-7-7-7-7-7-7----5--|
|------------3----5--------------|--------------------------------------------|


|---------------------------------------------------|
|---------------------------------------------------|
|--5----5-7-5-4----------------5----5-7-5-4---------|
|------------------5----7----------------------9----|
|--3----3-5-3-2----------------3----3-5-3-2----7----|
|------------------3----5---------------------------|



Bridge

|-----------------------------------------|
|-----------------------------------------|
|-----------------------------------------|
|--9-9-9-9--9-9-9-9--9-9-9-9-9-9-9-9-9-9--|
|--7-7-7-7--7-7-7-7--7-7-7-7-7-7-7-7-7-7--|
|-----------------------------------------|

|-----------------------------------------|
|-----------------------------------------|
|-----------------------------------------|
|--7-7-7-7--7-7-7-7--7-7-7-7-7-7-7-7-7-7--|
|--5-5-5-5--5-5-5-5--5-5-5-5-5-5-5-5-5-5--|
|-----------------------------------------|

|--------------------------------------|
|--------------------------------------|
|--------------------------------------|
|--5-5-5-5--5-5-5-5--7-7-7-7--7-7-7-7--|
|--3-3-3-3--3-3-3-3--5-5-5-5--5-5-5-5--|
|--------------------------------------|

|-----------------------------------------|
|-----------------------------------------|
|-----------------------------------------|
|--9-9-9-9--9-9-9-9--9-9-9-9-9-9-9-9-9-9--|
|--7-7-7-7--7-7-7-7--7-7-7-7-7-7-7-7-7-7--|
|-----------------------------------------|


|-----------------------------------------|
|-----------------------------------------|
|-----------------------------------------|
|--9-9-9-9--9-9-9-9--9-9-9-9-9-9-9-9-9-9--|
|--7-7-7-7--7-7-7-7--7-7-7-7-7-7-7-7-7-7--|
|-----------------------------------------|

|-----------------------------------------|
|-----------------------------------------|
|-----------------------------------------|
|--7-7-7-7--7-7-7-7--7-7-7-7-7-7-7-7-7-7--|
|--5-5-5-5--5-5-5-5--5-5-5-5-5-5-5-5-5-5--|
|-----------------------------------------|

|-------------------------------------------|
|-------------------------------------------|
|-------------------------------------------|
|--5-5-5-5--5-5-5-5--7-7-7-7--7-7-7-7--9----|
|--3-3-3-3--3-3-3-3--5-5-5-5--5-5-5-5--7----|
|-------------------------------------------|



Solo/Verse III

||-------------------------------------||
||-------------------------------------||
||-------------------------------------||
||--9--9--9-----------------12--11--7--||
||--7--7--7-----------------10--9---5--||
||-----------0-0-0-0-0-0-0-------------||
          PM . . . . . . .


|---------------------------------------------------------|
|---------------------------------------------------------|
|---------------------------------------------------------|
|--9--9--9-----------------5-----7----5-----7----5-----7--|
|--7--7--7-----------------3--5--5----3--5--5----3--5--5--|
|-----------0-0-0-0-0-0-0-----3----------3----------3-----|
         PM . . . . . . .


Verse I

||-------------------------||
||-------------------------||
||-------------------------||
||--9-9--------------------||
||--7-7--------------------||
||------0-0-0-0-0-0-0-0-0--||
     PM . . . . . . . . .

|---------------|
|---------------|
|---------------|
|--5-4-5-7-5-7--|
|--3-2-3-5-3-5--|
|---------------|



Verse II

|-------------------------------------------------------------------------|
|-------------------------------------------------------------------------|
|-------------------------------------------------------------------------|
|-------------------------------------------------------------------------|
|-------------------------------------------------------------------------|
|--0--0-0-0-0-0--0-0-0-0-0--0-0-0-0-0--0-0-0-0-0--0-0-0-0-0-0--0-0-0-0-0--|
PM .  . . . . .  . . . . .  . . . . .  . . . . .  . . . . . .  . . . . .

|----------------------|
|----------------------|
|----------------------|
|----------------4--7--|
|----------------2--5--|
|--0--0-0-0-0-0--------|
PM .  . . . . .


||----------------------||
||----------------------||
||----------------------||
||---------------9-7-9--||
||---------------7-5-7--||
||--0--0-0-0-0-0--------||
 PM .  . . . . .

|---------------------|
|---------------------|
|---------------------|
|----------------9-7--|
|----------------7-5--|
|--0--0-0-0-0-0-------|
PM .  . . . . .



Chorus/Outro

|--------------------------------|--------------------------------------------|
|--------------------------------|--------------------------------------------|
|--------------------------------|--------------------------------------------|
|--2----0--------------2----0----|--9-9-9-9-9-9-9----7----9-9-9-9-9-9-9----7--|
|--3----2----2----4----3----2----|--7-7-7-7-7-7-7----5----7-7-7-7-7-7-7----5--|
|------------3----5--------------|--------------------------------------------|


|-----------------------------|
|-----------------------------|
|--5----5-7-5-4---------------|
|------------------5----7-----|
|--3----3-5-3-2---------------|
|------------------3----5-----|


|-----------------------------------|
|-----------------------------------|
|-----------------------------------|
|--5--5-5-5--4--4--4----------------|
|--3--3-3-3--2--2--2--7--5--4--2----|
|---------------------5--3--2--0----|

|-----------------------------------|
|-----------------------------------|
|-----------------------------------|
|--9-9-9-9--9-9-9-9--9-9-9-9-9-9-9--|
|--7-7-7-7--7-7-7-7--7-7-7-7-7-7-7--|
|-----------------------------------|


Добавлено: 18.10.2015
Другие материалы по этой песне:

Страница создана 18.10.2015
http://primanota.ru/black-knight/day-of-wizard-chords.htm
Привет, Гость.
Предлагаем пройти революционный курс по гитаре.
Подарок от PrimaNota.Ru, забирай!