PrimaNota.ru - самый крупный в мире бесплатный архив песенных текстов, аккордов, табулатур и нот


Black Knight - Aaraigathor - таба, видео

Регистрация Запомнить меня
Войти через:  Facebook Google Twitter Vk Yandex Mail.ru

Black Knight - Aaraigathor - таба, видео

Печатать
Просмотров: 120
Artist: Black Knight
Song: Aaraigathor
Album: Master of Disaster
Tuning: Standard


Intro

||---------------------------------||
||---------------------------------||
||----------4----------------------||
||------4-5---5-4---7-5-4---5-4----||
||----------------5-------5-----5--||
||--0-0----------------------------||
 PM . . . .   . . .   . . .   .


Break

|-------------------------------------------------------|--------------|
|-------------------------------------------------------|--------------|
|-------------------------------------------------------|--------------|
|-------9---------9-12----x\-------9------------9-12----|-----7--------|
|-------7---------7-10----x\-------7------------7-10----|-----5-----7--|
|--0-0-------0-0--------------0-0-------0--0-0----------|--x-----x--5--|


Verse

|----------------------------|--------------------------|
|----------------------------|--------------------------|
|----------------------------|--------------------------|
|-------------------4-5-4----|-------------------5-4----|
|-------7-----------------5--|-------7---------------5--|
|--0-0------0--0-0-----------|--0-0------0--0-0---------|
PM . .      .  . .              . .      .  . .


|----------------------------|------------------------|
|----------------------------|------------------------|
|----------------------------|------------------------|
|-------------------4-5-4----|---------------7--------|
|-------7-----------------5--|-------7-------5-----7--|
|--0-0------0--0-0-----------|--0-0-------x-----x--5--|
PM . .      .  . .              . .       


|----------------------------|--------------------------|
|----------------------------|--------------------------|
|----------------------------|--------------------------|
|-------------------4-5-4----|-------------------5-4----|
|-------7-----------------5--|-------7---------------5--|
|--0-0------0--0-0-----------|--0-0------0--0-0---------|
PM . .      .  . .              . .      .  . .


|----------------------------|------------------------|
|----------------------------|------------------------|
|----------------------------|------------------------|
|-------------------4-5-4----|---------------7--------|
|-------7-----------------5--|-------7-------5-----7--|
|--0-0------0--0-0-----------|--0-0-------x-----x--5--|
PM . .      .  . .              . .       



Chorus

|-----------------------------|
|-----------------------------|
|-----------------------------|
|--5-5-5----------------------|
|--3-3-3----5-5--5-5-----4-3--|
|-----------3-3--3-3-----2-1--|


Verse

|----------------------------|------------------------|
|----------------------------|------------------------|
|----------------------------|------------------------|
|-------------------4-5-4----|---------------7--------|
|-------7-----------------5--|-------7-------5-----7--|
|--0-0------0--0-0-----------|--0-0-------x-----x--5--|
PM . .      .  . .              . .       


|-----------------------------|----------------------------|
|-----------------------------|----------------------------|
|-----------------------------|----------------------------|
|--------------------4-5-4----|---------------------5-4----|
|----------7---------------5--|----------7--------------5--|
|--0-0-0-0---0-0-0-0----------|--0-0-0-0----0-0-0-0--------|
PM . . . .   . . . .             . . . .    . . . .


|-----------------------------|---------------------------|
|-----------------------------|---------------------------|
|-----------------------------|---------------------------|
|--------------------4-5-4----|------------------7--------|
|----------7---------------5--|----------7-------5-----7--|
|--0-0-0-0---0-0-0-0----------|--0-0-0-0------x-----x--5--|
PM . . . .   . . . .             . . . . 


Gtr 1 & Gtr 2
|-----------------------------|----------------------------|
|-----------------------------|----------------------------|
|--------------------2-4-2----|---------------------4-2----|
|----------5---------4-5-4-4--|----------5----------5-4-4--|
|----------7---------------5--|----------7--------------5--|
|--0-0-0-0---0-0-0-0----------|--0-0-0-0----0-0-0-0--------|
PM . . . .   . . . .             . . . .    . . . .


Gtr 1 & Gtr 2
|-----------------------------|---------------------------|
|-----------------------------|---------------------------|
|--------------------2-4-2----|---------------------------|
|----------5---------4-5-4-4--|----------5-------7--------|
|----------7---------------5--|----------7-------5-----7--|
|--0-0-0-0---0-0-0-0----------|--0-0-0-0------x-----x--5--|
PM . . . .   . . . .             . . . . 


Chorus

|-----------------------------|
|-----------------------------|
|-----------------------------|
|--5-5-5----------------------|
|--3-3-3----5-5--5-5-----4-3--|
|-----------3-3--3-3-----2-1--|


Break

|---------------------------------|--------------|
|---------------------------------|--------------|
|---------------------------------|--------------|
|-------9----------9-12--------9--|-----7--------|
|-------7----------7-10--------7--|-----5-----7--|
|--0-0------0-0-0---------0-0-----|--x-----x--5--|


Chorus

|-----------------------------|
|-----------------------------|
|-----------------------------|
|--5-5-5----------------------|
|--3-3-3----5-5--5-5-----4-3--|
|-----------3-3--3-3-----2-1--|


Bridge I

|----------|
|----------|
|----------|
|----------|
|----------|
|--0--0----|


|-----------------------------------------------------------------|
|-----------------------------------------------------------------|
|----------------------------------4-5-4--------------------------|
|-------4-5-4----4-5-5----4-5-7-------------4-5-4----5-7-5-4------|
|--7---------------------------------------------------------7----|
|-----------------------------------------------------------------|


Gtr 1 & Gtr 2
|-----------------------------------------------------------------|
|----------------------------------3-5-3--------------------------|
|-------2-4-2----2-4-4----2-4-5----4-5-4----2-4-2----4-5-4-2------|
|--5----4-5-4----4-5-5----4-5-7-------------4-5-4----5-7-5-4-5----|
|--7---------------------------------------------------------7----|
|-----------------------------------------------------------------|


Bridge II

|------------------------------------|
|-------------------------------5----|
|-----------------------------4------|
|-------------4----4-5-7----7--------|
|--5-5----5-7------------------------|
|------------------------------------|


|----------|----------|
|----------|----------|
|----------|----------|
|----------|----------|
|----------|----------|
|--0--0----|--0--0----|


|------------------------------------|
|-------------------------------5----|
|-----------------------------4------|
|-------------4----4-5-7----7--------|
|--5-5----5-7------------------------|
|------------------------------------|


Bridge III

|------------|
|------------|
|------------|
|------------|
|------------|
|--0----0----|


Gtr 1 & Gtr 2
||---------------||
||---------------||
||------4-5-4----||
||--5-7-5-7-5-7--||
||--7-9-------9--||
||---------------||


|-------------------------------------------------------------------------------|
|-------------------------------------------------------------------------------|
|-------------------------------------------------------------------------------|
|--5----5h7-7-7-7----7/9-7-7-7----9h10-10-10-10-10-10p9-7\5-5-5-5----5h7-7-7-7--|
|-------------------------------------------------------------------------------|
|-------------------------------------------------------------------------------|
|
|Gtr 2
|-------------------------------------------------------------------------------|
|-------------------------------------------------------------------------------|
|-------------------------------------------------------------------------------|
|--9-9-9---7-7-7--------------------------------------------9-9-9--------7-7-7--|
|--7-7-7---5-5-5---------5-5-5---------7--7--7--------------7-7-7--------5-5-5--|
|------------------------3-3-3---------5--5--5----------------------------------|


Solo Rhythm

||------------------------------------------------|--------------------||
||------------------------------------------------|--------------------||
||------------------------------------------------|--------------------||
||--9-9-9------------------9-9-9------------------|--7-7-7----7-7-7----||
||--7-7-7------------------7-7-7------------------|--5-5-5----5-5-5----||
||--------0-0-0-0-0-0-0-0--------0-0-0-0-0-0-0-0--|--------------------||
  PM      . . . . . . . .        . . . . . . . .


||-------------------------------------------------------------||
||-------------------------------------------------------------||
||-------------------------------------------------------------||
||--9-------9-------9-------9-------7-------7-------7-------7--||
||--7-------7-------7-------7-------5-------5-------5-------5--||
||----0-0-0---0-0-0---0-0-0---0-0-0---0-0-0---0-0-0---0-0-0----||
  PM  . . .   . . .   . . .   . . .   . . .   . . .   . . .

|----------|----------|
|----------|----------|
|----------|----------|
|--7--9----|--7--9----|
|--5--7----|--5--7----|
|----------|----------|


Bridge IV

Gtr 1 & Gtr 2
|-------------------------------------------------------------------|
|-------------------------------------------------------------------|
|----------------4----------------------4---------------------------|
|--5----7-4----5-5-4----4-5----7-4----5-5-4----4-2----2-2h4--5------|
|--7----9-5----7---5----5-7----9-5----7---5----5-3----3-3h5--7------|
|--------------------------------------------------------------0----|


Gtr 1 & Gtr 2
|--------------------|
|--------------------|
|----2-4-2-----------|
|--5-4-5-4-2----2-4--|
|--7-------3----3-5--|
|--------------------|


|-----------------------------------|
|-----------------------------------|
|-----------------------------------|
|-----------------------------------|
|--5-5-5-5-5-5-5-5-5-5-5-5-5-5-5-5--|
|--3-3-3-3-3-3-3-3-3-3-3-3-3-3-3-3--|
PM . . . . . . . . . . . . . . . . 


Break


|---------------------------------|--------------|
|---------------------------------|--------------|
|---------------------------------|--------------|
|-------9----------9-12--------9--|-----7--------|
|-------7----------7-10--------7--|-----5-----7--|
|--0-0------0-0-0---------0-0-----|--x-----x--5--|


Chorus

|-----------------------------|
|-----------------------------|
|-----------------------------|
|--5-5-5----------------------|
|--3-3-3----5-5--5-5-----4-3--|
|-----------3-3--3-3-----2-1--|


Outro

||---------------------------------||
||---------------------------------||
||----------4----------------------||
||------4-5---5-4---7-5-4---5-4----||
||----------------5-------5-----5--||
||--0-0----------------------------||
 PM . . . .   . . .   . . .   .


|----------|
|----------|
|----------|
|----------|
|--2--2----|
|--0--0----|



Добавлено: 18.10.2015
Другие материалы по этой песне:

Страница создана 18.10.2015
http://primanota.ru/black-knight/aaraigathor-chords.htm
Привет, Гость.
Предлагаем пройти революционный курс по гитаре.
Подарок от PrimaNota.Ru, забирай!