PrimaNota.ru - самый крупный в мире бесплатный архив песенных текстов, аккордов, табулатур и нот


Black Kids - Look At Me When I Rock Wichoo - таба, видео

Регистрация Запомнить меня
Войти через:  Facebook Google Twitter Vk Yandex Mail.ru

Black Kids - Look At Me When I Rock Wichoo - таба, видео

Печатать
Просмотров: 152
Уроки эстрадного вокала в Санкт-Петербурге
-------------------------------------------------------------------------------
                             Look at me (When I rock wichoo - Black Kids
-------------------------------------------------------------------------------
Tabbed by: Adam Kevan
Email: adamkevan@hotmail.com

Tuning: Standard


Verse Riff

e|-------------------------------------------------------|
B|--9-9-9---10--7-7-7---10-10-10---9-9-------------------|
G|--9-9-9---11--7-7-7---11-11-11---9-9-------------------|
D|-------------------------------------------------------|
A|-------------------------------------------------------|
E|-------------------------------------------------------|


Chorus Riff

e|-------------------------------------------------------|
B|-------------------------------------------------------|
G|-------------------------------------------------------|
D|-------------------------------------------------------|
A|-9-12-12-14-16-16---9-12-12-14-12-9--------------------|
E|-------------------------------------------------------|


After chorus riff

e|-------------------------------------------------------|
B|-------------------------------------------------------|
G|---18-16----18-16----18-16----18-16--------------------|
D|-------------------------------------------------------|
A|-------------------------------------------------------|
E|-------------------------------------------------------|


Solo


e|-------------------------------------------------------|
B|-------------------------------------------------------|
G|-------------------------------------------------------|
D|-------------------------------------------------------|
A|-9-12-12-14-16-16---9-12-12-14-12-9--------------------|  X4
E|-------------------------------------------------------|

e|-------------------------------------------------------|
B|--10-7-10-7-10-12-10-7---------------------------------|
G|-------------------------------------------------------|
D|-------------------------------------------------------|
A|-------------------------------------------------------|  X2
E|-------------------------------------------------------|

e|-------------------------------------------------------|
B|--10-7-10-7-10-12-10-7-17-15-14------------------------|
G|-------------------------------------------------------|
D|-------------------------------------------------------|
A|-------------------------------------------------------|  X1
E|-------------------------------------------------------|

e|-------------------------------------------------------|
B|--10-7-10-7-10-12-10-7---------------------------------|
G|-------------------------------------------------------|
D|-------------------------------------------------------|
A|-------------------------------------------------------|  X2
E|-------------------------------------------------------|

e|-------------------------------------------------------|
B|--10-7-10-7-10-12-10-7-17-15-14------------------------|
G|-------------------------------------------------------|
D|-------------------------------------------------------|
A|-------------------------------------------------------|  X1
E|-------------------------------------------------------|



e|-------------------------------------------------------|
B|--10-7-10-7-10-7-10-7--15-15-15-15-15-15-15-14---------|  X3
G|-------------------------------------------------------|
D|-------------------------------------------------------|
A|-------------------------------------------------------|
E|-------------------------------------------------------|



I think its all correct, Reggie also plays some chords at
some point in the song but im not too sure what they are.
Please rate the song :]!

Добавлено: 13.07.2012
Другие материалы по этой песне:
  • Аккорды и текст

Страница создана 13.07.2012
http://primanota.ru/black-kids/look-at-me-when-i-rock-wichoo-chords.htm
Привет, Гость.
Предлагаем пройти революционный курс по гитаре.
Подарок от PrimaNota.Ru, забирай!