PrimaNota.ru - самый крупный в мире бесплатный архив песенных текстов, аккордов, табулатур и нот


Black Kids - I Wanna Be Your Limousine - таба, видео

Регистрация Запомнить меня
Войти через:  Facebook Google Twitter Vk Yandex Mail.ru

Black Kids - I Wanna Be Your Limousine - таба, видео

Печатать
Просмотров: 108
Artist: Black Kids
Album: Partie Traumatic
Song: I Wanna Be Your Limousine
Tuning: Standard
Tabber: Andymaq

I was actually surprised how easy it is to play this solo as it sounds like it might 
some difficulty! Anyways, enjoy this solo from one of the best new bands out there! Black 
rule!!! :-D

e----------------------------------------------------------------|
B-----11--11---13b15-13--11--11----------------------------------|
G-/12---12--12-------------12----12------------------------------|
D----------------------------------------------------------------|
A----------------------------------------------------------------|
E----------------------------------------------------------------|

e----------------------------------------------------------------|
B----11--11---13b15-13--11--11--13p11----------------------------|
G-10---10--10-------------12---------12p10-----------------------|
D----------------------------------------------------------------|
A----------------------------------------------------------------|
E----------------------------------------------------------------|

e----------------------------------------------------------------|
B----11--11---13b15-13--11--11--11-------------------------------|
G-12---12--12-------------12------12-10--------------------------|
D----------------------------------------------------------------|
A----------------------------------------------------------------|
E----------------------------------------------------------------|

e----------------------------------------------------------------|
B----11--11---13b15~~~~~~~~~~------------------------------------|
G-10---10--10----------------------------------------------------|
D----------------------------------------------------------------|
A----------------------------------------------------------------|
E----------------------------------------------------------------|

e----------------------------------------------------------------|
B-13p11--11-13p11--11-13p11--13b15-13-11h13--13b15-13-11h13------|
G------12--------12--------12--------------12--------------12----|
D----------------------------------------------------------------|
A----------------------------------------------------------------|
E----------------------------------------------------------------|

e----------------------------------------------------------------|
B-11--13p11---13b15-13-11h13---11-13p11--13b15-13-11h13----------|
G----------12---------------12---------12--------------12--------|
D----------------------------------------------------------------|
A----------------------------------------------------------------|
E----------------------------------------------------------------|

e----------------------------------------------------------------|
B-11-13p11--11-13p11--11-13p11--13b15-13-11h13--13b15-13-11h13---|
G---------12--------12--------12--------------12--------------12-|
D----------------------------------------------------------------|
A----------------------------------------------------------------|
E----------------------------------------------------------------|

e----------------------------------------------------------------|
B-11-13p11--11-13p11--11-13p11----0------------------------------|
G---------12--------12--------12--0------------------------------|
D---------------------------------0------------------------------|
A---------------------------------0------------------------------|
E----------------------------------------------------------------|

@ndy
Добавлено: 01.04.2012
Другие материалы по этой песне:
  • Аккорды и текст

Страница создана 01.04.2012
http://primanota.ru/black-kids/i-wanna-be-your-limousine-chords.htm
Привет, Гость.
Предлагаем пройти революционный курс по гитаре.
Подарок от PrimaNota.Ru, забирай!