PrimaNota.ru - самый крупный в мире бесплатный архив песенных текстов, аккордов, табулатур и нот


Black Keys - Yernin - таба, видео

Регистрация Запомнить меня
Войти через:  Facebook Google Twitter Vk Yandex Mail.ru

Black Keys - Yernin - таба, видео

Печатать
Просмотров: 221
Уроки эстрадного вокала в Санкт-Петербурге
D  :--------------------------------------------------------------------|
B  :----------6-/8-----8-*5-6-5-6-*-5-------5---------5-5-5-5-5-5-5-5-2-|
G  :----------7-/9-----9-*5-7-5-7-*-5-----5-----------------------------|
D  :------------------------------------5-------------5-5-5-5-5-5-5-5-2-|
G  :----------------------------------5-------------0-5-5-5-5-5-5-5-5-2-|
D  :--------------------------------------------------------------------|

                                       Well I wan't ya..
D  :--------------------------------------------------------------------|
B  :2-2-2-3-3-3-3-5-5-5-5-6-6-6-6-5-*-----5---6-5---6-5-------6-5---6-5-|
G  :--------------------------------------------------------------------|
D  :2-2-2-3-3-3-3-5-5-5-5-7-7-7-7-5-*-----5---7-5---7-5-------7-5---7-5-|
G  :2-2-2-3-3-3-3-5-5-5-5-5-5-5-5-5-*---0-5-5-5-5-5-5-5-0-5-5-5-5-5-5-5-|
D  :--------------------------------------------------------------------|

                                                               I love,
D  :--------------------------------------------------------------------|
B  :------2-----2---2-----3-----3---3-----6-5-6-5-------------------6-5-|
G  :------2-----2---2-----3-----3---3-------------5---------------------|
D  :--2-------2-------3-------3---------------------5---------------7-5-|
G  :0-2-----0-2---2---3-----0-3---3---5-5-----------------------5-5-5-5-|
D  :--------------------------------------------------------------------|

   I love your smile..
D  :--------------------------------------------------------------------|
B  :--6-5----------11-10----11-10-----------------------------/-8-8-8-6-|
G  :-------------------------------------------7-7-7-7-7-7-7-7/-9-9-9-7-|
D  :--7-5----------12-10----12-10--------------7-7-7-7-7-7-7-7----------|
G  :5-5-5-5/-10-10-10-10-10-10-10-10-----------7-7-7-7-7-7-7-7----------|
D  :--------------------------------------------------------------------|


D  :---------------------------------------------------------------------|
B  :5-5-5-----------6/-8-----8-*-6-5-6---5---6--*-6/-8-----8-*-6-5-6---5-|
G  :5-5-5-----------7/-9-----9-*-7-5-7---5---7--*-7/-9-----9-*-7-5-7---5-|
D  :---------------------------------------------------------------------|
G  :---------------------------------------------------------------------|
D  :---------------------------------------------------------------------|

                       baby ,  what  I  would do..
D  :----------------------------------------------------------|
B  :-------------------------11-10----11-11--------6-5---6-5--|
G  :----------------------------------------------------------|
D  :-------------------------12-10----12-12--------7-5---7-5--|
G  :-------------------10-10-10-10-10-10-10-10-5-5-5-5-5-5-5-5|
D  :----------------------------------------------------------|
Добавлено: 29.07.2012
Другие материалы по этой песне:
  • Аккорды и текст

Страница создана 29.07.2012
http://primanota.ru/black-keys/yernin-chords.htm
Привет, Гость.
Предлагаем пройти революционный курс по гитаре.
Подарок от PrimaNota.Ru, забирай!