PrimaNota.ru - самый крупный в мире бесплатный архив песенных текстов, аккордов, табулатур и нот


Black Keys - Same Old Thing - текст песни, таба, видео

Регистрация Запомнить меня
Войти через:  Facebook Google Twitter Vk Yandex Mail.ru

Black Keys - Same Old Thing - текст песни, таба, видео

Печатать
Просмотров: 429
Song: Same Old Thing
Artist: The Black Keys
Album Attack & Release
Tunning: Standard Tuning

Tabbed By: Indie Nation

Main Riff
e-----------------------------------------------|
B-----------------------------------------------|
G-----------------------------------------------| x8
D-------------7~--------------------------------|
A----3-5--3-------0-7-7~--0-5-5~--0-2h3p2h3p2~--|
E-\5--------5-----------------------------------|


Chorus
e-------------------------------------------------|
B-------------------------------------------------|
G-0-0---0-0-2~----------0-0-0----0-0-2~-----------| 
D-x-x---x-x-2~----------x-x-x----x-x-2~-----------|
A-5-5---3-2-0~----------5-5-5----3-2-0~-----------|
E---------------3b4r3~-------------------3b4r3~~--|

e---------------------------------------------------------------|
B---------------------------------------------------------------|
G-0-0---0-0-2~----------0-0-0----0-0-2~-------------------------| 
D-x-x---x-x-2~----------x-x-x----x-x-2~--------------------5----|
A-5-5---3-2-0~----------5-5-5----3-2-0~--------------7p5h7---7--|
E---------------3b4r3~-------------------3b4r3~~--0-------------|


Main Riff
e-----------------------------------------------|
B-----------------------------------------------|
G-----------------------------------------------| x8
D-------------7~--------------------------------|
A----3-5--3-------0-7-7~--0-5-5~--0-2h3p2h3p2~--|
E-\5--------5-----------------------------------|


Chorus
e-------------------------------------------------|
B-------------------------------------------------|
G-0-0---0-0-2~----------0-0-0----0-0-2~-----------| 
D-x-x---x-x-2~----------x-x-x----x-x-2~-----------|
A-5-5---3-2-0~----------5-5-5----3-2-0~-----------|
E---------------3b4r3~-------------------3b4r3~~--|

e---------------------------------------------------------------|
B---------------------------------------------------------------|
G-0-0---0-0-2~----------0-0-0----0-0-2~-------------------------| 
D-x-x---x-x-2~----------x-x-x----x-x-2~--------------------5----|
A-5-5---3-2-0~----------5-5-5----3-2-0~--------------7p5h7---7--|
E---------------3b4r3~-------------------3b4r3~~--0-------------|


Break
e---------xx-----------------------------|
B---------xx------77-77-7-55-55-5--------|
G-66-66-6-xx-66-6-77-77-7-55-55-5--6-66--| x2
D-77-77-7-xx-77-7-77-77-7-55-55-5--7-77--|
A-77-77-7-xx-77-7-55-55-5-33-33-3--7-77--|
E-55-55-5-xx-55-5------------------5-55--|

          hold
e--------------------------------------|
B----------5----77-77-7-55-55-5--------|
G-66-66-6--7b9--77-77-7-55-55-5--6-66--| x2
D-77-77-7-------77-77-7-55-55-5--7-77--|
A-77-77-7-------55-55-5-33-33-3--7-77--|
E-55-55-5------------------------5-55--|


Main Riff
e-----------------------------------------------|
B-----------------------------------------------|
G-----------------------------------------------| x8
D-------------7~--------------------------------|
A----3-5--3-------0-7-7~--0-5-5~--0-2h3p2h3p2~--|
E-\5--------5-----------------------------------|
Добавлено: 05.07.2012
Другие материалы по этой песне:
  • Аккорды и текст

Страница создана 02.03.2012
http://primanota.ru/black-keys/same-old-thing-chords.htm
Привет, Гость.
Предлагаем пройти революционный курс по гитаре.
Подарок от PrimaNota.Ru, забирай!