PrimaNota.ru - самый крупный в мире бесплатный архив песенных текстов, аккордов, табулатур и нот


Black Keys - No Trust - текст песни, таба, видео

Регистрация Запомнить меня
Войти через:  Facebook Google Twitter Vk Yandex Mail.ru

Black Keys - No Trust - текст песни, таба, видео

Печатать
Просмотров: 335
Авторы музыки: The Black Keys

|-------------------------------|
|-------------------------------|
|-------------------------------|
|-----------------3-3h5---------|   this is the intro part
|---------5---------------------|
|-3-----------------------------|

then you go to this:
it is my first tab

|--------------------------------------------|
|---------------------3--3---5--5--3--3--5---|
|---------------------3--3---5--5--3--3--5---|
|------------3-3--5-5-3--3---5--5--3--3--5---|
|-------5-5--3-3--5-5------------------------|
|-3-3---3-3----------------------------------|
Добавлено: 12.05.2012
Другие материалы по этой песне:
  • Аккорды и текст

Страница создана 04.04.2012
http://primanota.ru/black-keys/no-trust-chords.htm
Привет, Гость.
Предлагаем пройти революционный курс по гитаре.
Подарок от PrimaNota.Ru, забирай!