PrimaNota.ru - самый крупный в мире бесплатный архив песенных текстов, аккордов, табулатур и нот


Black Keys - Have Love Will Travel - аккорды и текст, таба, бас-таба, видео

Регистрация Запомнить меня
Войти через:  Facebook Google Twitter Vk Yandex Mail.ru

Black Keys - Have Love Will Travel - аккорды и текст, таба, бас-таба, видео

Печатать
Просмотров: 1025
Уроки эстрадного вокала в Санкт-Петербурге
Авторы музыки: Richard Berry
Авторы текста: Richard Berry
Have Love Will Travel
Black Keys
--------------------------------------------------------------------------------------------------------
                   The Black Keys (the sonics) - Have A Love Will Travel
--------------------------------------------------------------------------------------------------------

Album : Thickfreakness (2003)
Tempo : 117 
E-mail: gwendal.mollo@orange.fr
Tabbed by: newg

Check my guitar pro/ Guitar tab  for more.

   Riff
E |--------------------------|---------------------------|------------------------|----------------------|
B |--------------------------|---------------------------|------------------------|----------------------|
G |--------------------------|---------------------------|------------------------|-------------5-----x--|
D |--------------------------|---------------------------|------------------------|-------------5s----7--|
A |----------3---5----5---3--|-5-7---5---3--5---3--------|--------3---5----5---3--|-5-7-----7------------|
E |---5---5------------------|---------------------5---3-|-5---5------------------|----------------------|


Riff x1
Riff x2

E7(                     D7
   If you need lovin',     oh baby I travel

Riff x1

  A5          C5            D5      A5
I travel from Maine down to Mexico
   A5        C5        D5          A5
To find that girl that loves me so
   A5     C5      D5      A5
No matter where I be
  A5
I find that girl and she satisfy me

     Riff          Riff
Have love, will travel
     Riff          Riff
Have love, will travel

E7(                     D7
   If you need lovin',     oh baby I travel

[Solo]

E7(                     D7
   If you need lovin',     oh baby I travel

Riff x1

  A5           C5            D5           A5
I might take a boat, I might take a plane
  A5          C5             D5             A5
I might hitch-hike or jump a railroad-train
A5           C5           D5         A5
Your kind of love drive a man insane
   A5         
So look for me walkin' just any old way

     Riff          Riff
Have love, will travel
     Riff          Riff
Have love, will travel

E7(                     D7
   If you need lovin',     oh baby I travel

Riff x1

E7(                     D7
   If you need lovin',     oh baby I travel

A5 (Let ring)
A5
Добавлено: 05.11.2014
Другие материалы по этой песне:

Страница создана 05.03.2012
http://primanota.ru/black-keys/have-love-will-travel-chords.htm
Привет, Гость.
Предлагаем пройти революционный курс по гитаре.
Подарок от PrimaNota.Ru, забирай!