PrimaNota.ru - самый крупный в мире бесплатный архив песенных текстов, аккордов, табулатур и нот


Black Keys - Busted - аккорды и текст, таба, видео

Регистрация Запомнить меня
Войти через:  Facebook Google Twitter Vk Yandex Mail.ru

Black Keys - Busted - аккорды и текст, таба, видео

Печатать
Просмотров: 425
Busted
Black Keys
Note the open G tuning & use a slide. Play the G note's with your thumb, slightly muted.
 
/ = slide
~ = vibrato 
^ = bend 
h = hammer on
p = pull off
t = thumb


D  :----------------|----------------|----------------|----------------|
B  :----------------|----------6-----|8-6-------------|----------6-----|
G  :----------------|------5-7-------|----0---3-------|0-----5-7-------|
D  :----------------|------------0---|----------------|------------0---|
G  :----------------|0---0---0-------|0---0---0---0---|0---0---0-------|
D  :----------------|----------------|----------------|----------------|

D  :-----------------|----------------|-------------------|
B  :8-6--------------|----------6-----|-------------------|
G  :----0-3^---------|0-----5-7-------|7-/5------3^-------|
D  :-----------------|------------0---|-------------------|
G  :0---0----0---0---|0---0---0-------|0-----0---0----0---|
D  :-----------------|----------------|-------------------|

D  :----------------|-------------------|------------------|
B  :----------6-----|-------------------|------------------|
G  :0-----5-7-------|7-/5------3^-------|------------------|
D  :------------0---|-------------------|--------------5-@-|
G  :0---0---0-------|0-----0---0----0---|0--/12-----0--5-@-|
D  :----------------|-------------------|------------------|
                                          Well I'm busted..
D  :-------------------|-----------------|------------------------|
B  :-------------------|-----------------|------------------------|
G  :------0------------|--------------0--|------0-@---0----0-@----|
D  :-------------------|----5-@----------|--------------0---------|
G  :--3^-----0--/12----|-0--5-@---3^-----|------0-@--------0-@----|
D  :-------------------|-----------------|3^----------------------|

D  :----------------------|------------------------|
B  :----------------------|------------------------|
G  :------0-@---0----0-@--|------0-@---0----0-@----|
D  :--------------0-------|--------------0---------|
G  :------0-@--------0-@--|------0-@--------0-@----|
D  :3^--------------------|3^----------------------|

D  :------------------------|----------------|----------------|
B  :------------------------|----6-----------|8-6-------------|
G  :------0-@---0----0-@----|----7-----------|----0---3-------|
D  :--------------0---------|----------------|----------------|
G  :------0-@--------0-@----|0---0---0---0---|0---0---0---0---|
D  :3^----------------------|----------------|----------------|

D  :----------------|----------------|
B  :----6-----------|8-6-------------|
G  :----7-----------|----0---3-------|
D  :----------------|----------------|
G  :0---0---0---0---|0---0---0---0---|
D  :----------------|----------------|

taken from:
Добавлено: 04.02.2014
Другие материалы по этой песне:
  • Аккорды и текст

Страница создана 12.06.2012
http://primanota.ru/black-keys/busted-chords.htm
Привет, Гость.
Предлагаем пройти революционный курс по гитаре.
Подарок от PrimaNota.Ru, забирай!