PrimaNota.ru - самый крупный в мире бесплатный архив песенных текстов, аккордов, табулатур и нот


Black Keys - Black Mud - аккорды и текст, таба, видео

Регистрация Запомнить меня
Войти через:  Facebook Google Twitter Vk Yandex Mail.ru

Black Keys - Black Mud - аккорды и текст, таба, видео

Печатать
Просмотров: 350
Уроки эстрадного вокала в Санкт-Петербурге
Авторы музыки: Patrick Carney, Dan Auerbach
Авторы текста: Patrick Carney, Dan Auerbach
Black Mud
Black Keys
GUITAR 1:
Part 1
e|---------------------|-----|--------------------------------------------|
B|--3-3-3-3-3----------|-----|---3-3-3-3-3------3-------------------------|
G|-/4-4-4-4-4----------|[x-3]|--/4-4-4-4-4--2-4---2b-2--------------------|
D|-------------0-2-0---|-----|--------------------------------------------|
A|---------------------|-----|--------------------------------------------|
E|-------------------3-|-----|--------------------------------------------|

This is actually played by the bass, but it's nice to add 
in after the 3 on the E-string:
D|-------|
A|-------|
E|-3/5-3-|

Part2
e|------------------------------------------------------------------------|
B|------------------------------------------------------------------------|
G|------------------------------------------------------------------------|
D|---------------------5------------------------5h7p5---------------------|
A|-5-7--5-7--5-7--5-7----7---5-7--5-7--5-7--5-7------7--------------------|
E|------------------------------------------------------------------------|
Not everything is tabbed here, since it's just a lot of improvising.

Part3
e|------------------------------------------------------------------------|
B|------------------------------------------------------------------------|
G|------------------------------------------------------------------------|
D|------------------------------------------------------------------------|
A|------------------------------------------------------------------------|
E|--0-5-0-3-0-5-0-3-567--0-5-0-3-0-5-0-3-0567--0-5-0-3-0-5-0-3-567--------|

e|----------------------|
B|----------------------|
G|----------------------|
D|----------------------|
A|--------------5-7-6-5-|
E|--0-5-0-3-0-5---------|

GUITAR 2:
Part 1:
e|-0~-0~----------------|
B|-0~-0~-----------15b--|
G|-0~-0~------14b-------|
D|-2~-2~----------------|
A|----------------------|
E|----------------------|

Part 2:
e|------------------------------------------------------------------------|
B|----------------------------15b--15br-12--------------------------------|
G|----12-14b------12-14-12~----------------14-12-14-12--------------------|
D|-14---------14~--------------------------------------14-----------------|
A|------------------------------------------------------------------------|
E|------------------------------------------------------------------------|

e|-0~-0~-0~ 0~-0~-------------0~-|
B|-0~-0~-0~-0~-0~--------15b--0~-|
G|-0~-0~-0~-0~-0~---14b-------0~-|
D|-2~-2~-2~-2~-2~-------------2~-|
A|-------------------------------|
E|-------------------------------|

Part 3:
e|------------------------------------------------------------------------|
B|------------------------------------------------------------------------|
G|------------------------------------------------------------------------|
D|------------------------------------------------------------------------|
A|------------------------------------------------------------------------|
E|--0-5-0-3-0-5-0-3-567--0-5-0-3-0-5-0-3-0567--0-5-0-3-0-5-0-3-567--------|

e|----------------------|
B|----------------------|
G|--------------------0-|
D|----------------0h2---|
A|----------------------|
E|--0-5-0-3-0-5-0-------|

Part 3 (second time):
e|----------------------------------------------|
B|----------------------------------------------|
G|-----------------14b--------------------------|
D|-------------------------------------12-14-14-|
A|----------------------------------------------|
E|-0-5-0-3-0-5-0-3-----0-5-0-3-0-5-0-3----------|

e|---------------------------------------------12----------12~------------|
B|------------------------------------------------12-15-15----------------|
G|------------------14b-14-12---------------14----------------------------|
D|----------------------------14------------------------------------------|
A|------------------------------------------------------------------------|
E|--0-5-0-3-0-5-0-3---------------0-5-0-3-0-------------------------------|

Part 1 (second time):
e|---------------------------------------12---------|
B|-----------------------------12-12--12----12-15b--|
G|-12-14-16~-----12-14-12---------------------------|
D|------------14----------14------------------------|
A|--------------------------------------------------|
E|--------------------------------------------------|

e|----------------------------------|
B|-10h15p10----10-------------------|
G|----------14----14-12-14----------|
D|-------------------------14-12-14-|
A|----------------------------------|
E|----------------------------------|

Ending:
Guitar 2 just plays the wah chord a few times, 
and guitar 1 plays bits of its part 2.
You can end with:
e|----------------------|
B|----------------------|
G|----------------------|
D|----------------------|
A|----------------------|
E|-7--5--3--5--0~-------|
Добавлено: 21.08.2015
Другие материалы по этой песне:
  • Аккорды и текст

Страница создана 22.04.2012
http://primanota.ru/black-keys/black-mud-chords.htm
Привет, Гость.
Предлагаем пройти революционный курс по гитаре.
Подарок от PrimaNota.Ru, забирай!