PrimaNota.ru - самый крупный в мире бесплатный архив песенных текстов, аккордов, табулатур и нот


Black Flag - What I See - текст песни, таба, бас-таба, видео

Регистрация Запомнить меня
Войти через:  Facebook Google Twitter Vk Yandex Mail.ru

Black Flag - What I See - текст песни, таба, бас-таба, видео

Печатать
Просмотров: 173
-------------------------------------------------------------------------------
                             What I See - Black Flag - Damaged - 1981
-------------------------------------------------------------------------------
Tabbed by: MattTheArsonist      
E-mail: mattsaari@live.com

Tuning: Standard (EADGBe)

Intro/Interlude (0:14)
e |-----------------------------------------------|
B |-----------------------------------------------|
G |-----------------------------------------------|
D |--7-7-7--7-7-7---7-7-7--7-7-7---8-8-8--8-8-8---|
A |--5-5-5--5-5-5---5-5-5--5-5-5---6-6-6--6-6-6---|
E |-----------------------------------------------|Guitar 1

e |-----------------------------------------------------------------|
B |--5b-5b-5b--5b-5b-5b---5b-5b-5b--5b-5b-5b---6b-6b-6b--6b-6b-6b---|
G |--7b-7b-7b--7b-7b-7b---7b-7b-7b--7b-7b-7b---8b-8b-8b--8b-8b-8b---|
D |-----------------------------------------------------------------|
A |-----------------------------------------------------------------|Guitar 2
E |-----------------------------------------------------------------|(This is supplemental)


Verse (0:20)
e |----------------------------|-----------------------------|
B |----------------------------|-----------------------------|
G |------------------5-5-5-5---|-------------------5-5-5\6---|
D |--7----5---5---5--5-5-5-5---|---7----5---5---5--5-5-5\6---|
A |--7----5---5---5--3-3-3-3---|---7----5---5---5--3-3-3\4---|
E |--5-x--3-x-3-x-3------------|---5-x--3-x-3-x-3------------|
                                                                    x3


Chorus (0:29)
e |-----------------------------|
B |-----------------------------|
G |--5-5-5-5-4-5--7-7-7-7-6-7---|
D |--5-5-5-5-4-5--7-7-7-7-6-7---|
A |--3-3-3-3-2-3--5-5-5-5-4-5---|
E |-----------------------------|


Verse (0:33)
Chorus (0:41)
Verse (0:46)
Chorus (0:54)
Interlude (1:18)
Verse (1:24)

Outro (1:33)
e |--------------------------------------------------------------------|
B |--------------------------------------------------------------------|
G |--5-5-5-5-4-5--7-7-7-7-6-7--9-9-9-9-8-9--7-7-7-7-6-7--5-5-5-5-4-5---|
D |--5-5-5-5-4-5--7-7-7-7-6-7--9-9-9-9-8-9--7-7-7-7-6-7--5-5-5-5-4-5---|
A |--3-3-3-3-2-3--5-5-5-5-4-5--7-7-7-7-6-7--5-5-5-5-4-5--3-3-3-3-2-3---|
E |--------------------------------------------------------------------|


e |-------------------------|
B |-------------------------|
G |-------------------------|
D |--7-7--7-7--7-7--7-7~----|
A |--7-7--7-7--7-7--7-7~----|
E |--5-5--5-5--5-5--5-5~----|



That's it.
Добавлено: 12.08.2013
Другие материалы по этой песне:

Страница создана 15.03.2012
http://primanota.ru/black-flag/what-i-see-chords.htm
Привет, Гость.
Предлагаем пройти революционный курс по гитаре.
Подарок от PrimaNota.Ru, забирай!