PrimaNota.ru - самый крупный в мире бесплатный архив песенных текстов, аккордов, табулатур и нот


Black Flag - The Chase - таба, видео

Регистрация Запомнить меня
Войти через:  Facebook Google Twitter Vk Yandex Mail.ru

Black Flag - The Chase - таба, видео

Печатать
Просмотров: 102
Intro/Verse
"The Chase is on..."
E |----------------------------------|
B |----------------------------------|
G |----------------------------------|
D |---9-9--7-7--9-9--7-7--9--7-------|
A |---9-9--7-7--9-9--7-7--9--7-------|
E |---7-7--5-5--7-7--5-5--7--5-------| x6

Bridge
"Unintelligible"
E |-----------------------------------------|
B |-----------------------------------------|
G |-----------------------------------------|
D |--7-7------------5~---5-5-5-5--5-5-5-5---|
A |--7-7---5-5-5h7-------5-5-5-5--5-5-5-5---|
E |--5-5-----------------3-3-3-3--3-3-3-3---| x4


Verse x4
Bridge x4

Chorus
"You better run!"
E |-------------------------------------------------|
B |-------------------------------------------------|
G |--9-9-9--7p0--------------------------5~-5-5-5---|
D |---------------5~-5-5-5----7-7-7-7-7--5~-5-5-5---|
A |---------------5~-5-5-5----7-7-7-7-7--3~-3-3-3---|
E |---------------3~-3-3-3----5-5-5-5-5-------------| x4

Drum Break
Chorus x4
Verse x4
Bridge x4
Chorus x8

Outro Chord

E |--------|
B |--------|
G |--7!----|
D |--7!----|
A |--5!----|
E | -------| End


That's it. Pretty simple. Probably not 100%, but close enough for punk rock. Mess with 
the rhythm - the tempo's super fast, so play with it. Only took me 10 minutes to work out 
- working on Down in the Dirt next. In the meantime, enjoy.
Добавлено: 09.07.2013
Другие материалы по этой песне:
  • Аккорды и текст

Страница создана 09.07.2013
http://primanota.ru/black-flag/the-chase-chords.htm
Привет, Гость.
Предлагаем пройти революционный курс по гитаре.
Подарок от PrimaNota.Ru, забирай!