PrimaNota.ru - самый крупный в мире бесплатный архив песенных текстов, аккордов, табулатур и нот


Black Flag - Padded Cell - текст песни, бас-таба, видео

Регистрация Запомнить меня
Войти через:  Facebook Google Twitter Vk Yandex Mail.ru

Black Flag - Padded Cell - текст песни, бас-таба, видео

Печатать
Просмотров: 55
Song: Padded Cell
Artist: Black Flag
Album: Damaged
Genre: Hardcore Punk
Year: 1981

Hey guys! This is the bass tab of the song.
I took the notes from a Youtube video... but I think it's 95% correct... it seems sound right!
Anyway, enjoy the Black Flag! This is the tab:

Verse:

G:-------------------------------------
D:------------6-666666-44-------4-44---
A:------------------------66-44--------
E:---6-666666--------------------------  

Chorus And Post-Chorus:

G:-------------------------------------
D:---66666-8-44444-6-22222-4-6666666---
A:-------------------------------------
E:-------------------------------------

G:---------------------------------------------------------
D:---66666-8-44444-6-22222-4-6666666-------6666666---------
A:---------------------------------------------------------
E:-----------------------------------8--66---------8--66---

G:--------------------------------------------------
D:---6666666----------------------------------------
A:-----------6-55-4-33-2-11*-11-11-11-11-11-11-11---
E:--------------------------------------------------

*These are "one", the others are "eleven"


The order is:
.Verse x4
.Chorus And Post-Chorus x1

Repeat it for all the time of the song and it's done.



Tab by: mdc_ivan
Добавлено: 04.04.2016
Другие материалы по этой песне:
  • Аккорды и текст

Страница создана 05.07.2012
http://primanota.ru/black-flag/padded-cell-chords.htm
Привет, Гость.
Предлагаем пройти революционный курс по гитаре.
Подарок от PrimaNota.Ru, забирай!