PrimaNota.ru - самый крупный в мире бесплатный архив песенных текстов, аккордов, табулатур и нот


Black Flag - Nervous Breakdown (album) - бас-таба, видео

Регистрация Запомнить меня
Войти через:  Facebook Google Twitter Vk Yandex Mail.ru

Black Flag - Nervous Breakdown (album) - бас-таба, видео

Печатать
Просмотров: 47
Album: Nervous Breakdown
Artist: Black Flag
Genre: Hardcore Punk
Year: 1978

Hey guys! This is the bass tab of the album and it's 100% correct, but I have got just 
one doubt about "Fix Me" chorus.
Anyway, enjoy the Black Flag! 

01 Nervous Breakdown

Verse:

G:---------------------------
D:---------------------------
A:-------7----------5--------
E:---777----777-555----555---

Chorus 1:

G:------------------------------------   ----------------------------------------------------
D:------------------------------------   ----------------------------------------------------
A:------------------------------------   --------------------------------7----------5--------
E:---3333-5555-77777777-7-5--3--5-3---x2 ---3333-555-7777777777777777777----777-555----555---x1

Chorus 2:

G:------------------------------------   --------------------------
D:------------------------------------   --------------------------
A:------------------------------------   --------------------------
E:---3333-5555-77777777-7-5--3--5-3---x2 ---77777777-7-5--3--5-3---x2

The order is:
.Verse x6
.Chorus 1 x1
.Verse x5
.Chorus 1 x1
.Verse x5
.Chorus 1 x1
.Verse x5
.Chorus 2 x1

-------------------------------------------------------------------------------------------------

02 Fix Me

Verse:

G:-----------------------
D:-----------------------
A:-----------------------
E:---5555-7777-555-8-8---

Chorus:

G:-------------------------------------
D:-------------------------------------
A:---5-55-7-77-7-5--3-5-3-7-5--3-5-3---
E:-------------------------------------

End:

G:-------
D:-------
A:-------
E:---5---

The order is:
.Verse x6
.Chorus x1
.Verse x4
.Chorus x1
.Verse x4
.Chorus x1
.End x1

-------------------------------------------------------------------------------------------------

03 I've Had It

Verse:

G:----------------
D:----------------
A:---77777-5------
E:------------5---

Chorus:

G:-----------------------------------------
D:-----------------------------------------
A:-----------------------------------------
E:---33333333-55555555-66666666-77777777---

Outro:

G:---------------------------------------------------------------------------------
D:---------------------------------------------------------------------------------
A:-----------------------------------66-77-88-99-10-10-11-11-12-12-13-13-14-14-----
E:---3333-5555-6666-7777-88-99-10-10-------------------------------------------5---

The order is:
.Verse x4
.Chorus x1
.Verse x4
.Chorus x1
.Verse x4
.Chorus x1
.Verse x4
.Outro x1

-------------------------------------------------------------------------------------------------

04 Wasted

Verse:

G:---------------
D:---------------
A:---------5-----
E:---55555---5---

Chorus:

G:-----------------------------------------
D:-----------------------------------------
A:-----------------------------------------
E:---8-88888888888888-6-666666-4444-3333---

End:

G:-------
D:-------
A:-------
E:---5---

The order is:
.Verse x8
.Chorus x1
.Verse x8
.Chorus x1
.Verse x8
.Chorus x1
.End x1





Tab by: mdc_ivan





Добавлено: 04.04.2016
Другие материалы по этой песне:
  • Аккорды и текст

Страница создана 04.04.2016
http://primanota.ru/black-flag/nervous-breakdown-album-chords.htm
Привет, Гость.
Предлагаем пройти революционный курс по гитаре.
Подарок от PrimaNota.Ru, забирай!