PrimaNota.ru - самый крупный в мире бесплатный архив песенных текстов, аккордов, табулатур и нот


Black Flag - My War - текст песни, таба, бас-таба, видео

Регистрация Запомнить меня
Войти через:  Facebook Google Twitter Vk Yandex Mail.ru

Black Flag - My War - текст песни, таба, бас-таба, видео

Печатать
Просмотров: 257
Авторы музыки: Chuck Dukowski
Авторы текста: Chuck Dukowski
-------------------------------------------------------------------------------
			     My War - Black Flag
-------------------------------------------------------------------------------
Tabbed by: MattTheArsonist
Email: sadstatue89@msn.com

This is one of my favorite Black Flag songs and albums of all time. Hope you
enjoy learning it. =)

Tuning: Standard

Intro Lick
e|---0---------------------------------------------------------0-------------|
B|-------2-------3--1----------1---------------3--1--4--2---------3-------3~-|
G|---------------------------------3------------------------0--------1--0----|
D|-----------0----------3------------------0---------------------------------|
A|--------------------------3----------4-------------------------------------|
E|---------------------------------------------------------------------------|

Verse 1
e|-----------------|--------------------------------------------------|
B|-----------------|--------------------------------------------------|
G|-----------------|--------------------------------------------------|
D|-----------------|-------------------------------6-xxxx-6-6---------|
A|-----------------|-------------------------------6-xxxx-6-6---------|
E|---5p2-2-2-2-2---|--5p2-2--5p2-2--5p2-2--5p2-2---4-xxxx-4-4---------|
                x4

e|-----------------|--------------------------------------------------|
B|-----------------|--------------------------------------------------|
G|-----------------|-------------------------------6-xxxx-6-6---------|
D|-----------------|-------------------------------6-xxxx-6-6---------|
A|---5p2-2-2-2-2---|--5p2-2--5p2-2--5p2-2--5p2-2---4-xxxx-4-4---------|
E|-----------------|--------------------------------------------------|
                x4 

e|-----------------|--------------------------------------------------|
B|-----------------|--------------------------------------------------|
G|-----------------|--------------------------------------------------|
D|-----------------|-------------------------------6-xxxx-6-6---------|
A|-----------------|-------------------------------6-xxxx-6-6---------|
E|---5p2-2-2-2-2---|--5p2-2--5p2-2--5p2-2--5p2-2---4-xxxx-4-4---------|
                x4

Chorus
e|-----------------------------------------------------------|
B|-----------------------------------------------------------|
G|-----------------------------------------------------------|
D|------------4-5------------3-4------------2-3--------------|
A|--5-5-5-5-5------4-4-4-4-4------3-3-3-3-3------0--2--0--2--|
E|-----------------------------------------------------------|X2

e|------------------------------------|
B|------------------------------------|
G|------------------------------------|
D|------------------------------2~----|
A|--0--2--0--2----0--2--0--2----2~----|
E|------------------------------0~----|

Verse 2
e|-----------------|--------------------------------------------------|
B|-----------------|--------------------------------------------------|
G|-----------------|--------------------------------------------------|
D|-----------------|-------------------------------6-xxxx-6-6---------|
A|-----------------|-------------------------------6-xxxx-6-6---------|
E|---5p2-2-2-2-2---|--5p2-2--5p2-2--5p2-2--5p2-2---4-xxxx-4-4---------|
                x4

e|-----------------|--------------------------------------------------|
B|-----------------|--------------------------------------------------|
G|-----------------|-------------------------------6-xxxx-6-6---------|
D|-----------------|-------------------------------6-xxxx-6-6---------|
A|---5p2-2-2-2-2---|--5p2-2--5p2-2--5p2-2--5p2-2---4-xxxx-4-4---------|
E|-----------------|--------------------------------------------------|
                x4 

e|-----------------|--------------------------------------------------|
B|-----------------|--------------------------------------------------|
G|-----------------|--------------------------------------------------|
D|-----------------|-------------------------------6-xxxx-6-6---------|
A|-----------------|-------------------------------6-xxxx-6-6---------|
E|---5p2-2-2-2-2---|--5p2-2--5p2-2--5p2-2--5p2-2---4-xxxx-4-4---------|
               x4

Chorus 2
e|-----------------------------------------------------------|
B|-----------------------------------------------------------|
G|-----------------------------------------------------------|
D|------------4-5------------3-4------------2-3--------------|
A|--5-5-5-5-5------4-4-4-4-4------3-3-3-3-3------0--2--0--2--|
E|-----------------------------------------------------------|X2

e|----------------------------|
B|----------------------------|
G|----------------------------|
D|----------------------------|
A|--0--2--0--2----0--2--0--2--|
E|----------------------------|


Interlude
e|--0--------------------------------------------------------------|--------|
B|---------------3---------------1------------3-----4----5---2--3--|--1-----|
G|-----0----------------------------3------------------------------|----3p0-|
D|--------1--0-----(3)--3--3-----------3---0-----1----2------------|--------|
A|----------------------------3------------------------------------|--------|
E|-----------------------------------------------------------------|--------|


Verse 3
e|-----------------|--------------------------------------------------|
B|-----------------|--------------------------------------------------|
G|-----------------|--------------------------------------------------|
D|-----------------|-------------------------------6-xxxx-6-6---------|
A|-----------------|-------------------------------6-xxxx-6-6---------|
E|---5p2-2-2-2-2---|--5p2-2--5p2-2--5p2-2--5p2-2---4-xxxx-4-4---------|
                x4

e|-----------------|--------------------------------------------------|
B|-----------------|--------------------------------------------------|
G|-----------------|-------------------------------6-xxxx-6-6---------|
D|-----------------|-------------------------------6-xxxx-6-6---------|
A|---5p2-2-2-2-2---|--5p2-2--5p2-2--5p2-2--5p2-2---4-xxxx-4-4---------|
E|-----------------|--------------------------------------------------|
                x4 

e|-----------------|--------------------------------------------------|
B|-----------------|--------------------------------------------------|
G|-----------------|--------------------------------------------------|
D|-----------------|-------------------------------6-xxxx-6-6---------|
A|-----------------|-------------------------------6-xxxx-6-6---------|
E|---5p2-2-2-2-2---|--5p2-2--5p2-2--5p2-2--5p2-2---4-xxxx-4-4---------|
               x4

Chorus 3
e|-----------------------------------------------------------|
B|-----------------------------------------------------------|
G|-----------------------------------------------------------|
D|------------4-5------------3-4------------2-3--------------|
A|--5-5-5-5-5------4-4-4-4-4------3-3-3-3-3------0--2--0--2--|
E|-----------------------------------------------------------|X2

e|------------------------------------------|
B|------------------------------------------|
G|------------------------------------------|
D|------------------------------------------|
A|--0--2--0--2----0--2--0--2----0--2--0--2--|
E|------------------------------------------|

e|----------------------------|
B|----------------------------|
G|----------------------------|
D|----------------------------|
A|----------------------------|
E|--0--2--0--2----0--2--0--2--|x2

e|------------------------------------------|
B|------------------------------------------|
G|------------------------------------------|
D|------------------------------------------|
A|--0--2--0--2----0--2--0--2----0--2--0--2--|
E|------------------------------------------|

e|---------|
B|---------|
G|---------|
D|--2~-----|
A|--2~-----|
E|--0~-----|

That's all of it. In order too. I did this all by ear and I've gone over it
all quite a few times, so I'm confidemt that this is 99.99999% accurate. 
Добавлено: 05.07.2013
Другие материалы по этой песне:
  • Аккорды и текст

Страница создана 28.05.2012
http://primanota.ru/black-flag/my-war-chords.htm
Привет, Гость.
Предлагаем пройти революционный курс по гитаре.
Подарок от PrimaNota.Ru, забирай!