PrimaNota.ru - самый крупный в мире бесплатный архив песенных текстов, аккордов, табулатур и нот


Black Flag - Gimme Gimme Gimme - текст песни, таба, видео

Регистрация Запомнить меня
Войти через:  Facebook Google Twitter Vk Yandex Mail.ru

Black Flag - Gimme Gimme Gimme - текст песни, таба, видео

Печатать
Просмотров: 168
-------------------------------------------------------------------------------
			Gimme Gimme Gimme - Black Flag
-------------------------------------------------------------------------------
Tabbed by: Jarod
Email: whatastupidworld@gmail.com

Tuning: I play it a 1/2 step down, but you can play it standard the same way

verses
e|---------------------------------------------------------------------------|
B|---------------------------------------------------------------------------|
G|---------------------------------------------------------------------------|
D|-99999-9-7-----------------------------------------------------------------|
A|-99999-9-7-----------------------------------------------------------------|
E|-77777-0-5-----------------------------------------------------------------|

chorus
e|---------------------------------------------------------------------------|
B|---------------------------------------------------------------------------|
G|-----------------------------------9999--------7777------------------------|
D|-9999999999999999-7777777777777777-9999-999999-7777-7----------------------|
A|-9999999999999999-7777777777777777-7777-999999-5555-7----------------------|
E|-7777777777777777-5555555555555555------777777------5----------------------|


| /  slide up
| \  slide down
| h  hammer-on
| p  pull-off
| ~  vibrato
| +  harmonic
| x  Mute note
===============================================================================
Добавлено: 13.11.2013
Другие материалы по этой песне:
  • Аккорды и текст

Страница создана 21.02.2012
http://primanota.ru/black-flag/gimme-gimme-gimme-chords.htm
Привет, Гость.
Предлагаем пройти революционный курс по гитаре.
Подарок от PrimaNota.Ru, забирай!