PrimaNota.ru - самый крупный в мире бесплатный архив песенных текстов, аккордов, табулатур и нот


Black Eyed Sceva - Happy Face - таба, видео

Регистрация Запомнить меня
Войти через:  Facebook Google Twitter Vk Yandex Mail.ru

Black Eyed Sceva - Happy Face - таба, видео

Печатать
Просмотров: 91
		   Happy Face by Black Eyed Sceva
(c) 1995 Unusual Woody Seed Pod Music
words by Jeremy Post
music by Black Eyed Sceva
5 minute walk label
tabbed by crennier@juno.com

Intro:

:------------------------------------------------------------------
:-------------------3-------2--------5-----3-----3------2-----0----
:-----0------2--------0-------0--------0-----0------0-----------0--
:---2------0------2-------2----------------------------------------
:---------------3-------0-------0--3-----2-----0------0----0-------
:-0------2---------------------------------------------------------

Verse:

Em  G/F#   G   A7       E?   Em7  Asus7  A7

0---3------3---0---0-----0-00------0
0---3------3---2h3------5--33--------2
0---0------0---0---------0-00------0
2---0------0---2---------0-02------2
2---0------2---0---------3-20------0
0---2------3---0---------0-00------0


someone please figure out the chorus and bridge. Thank You very much

     
Добавлено: 18.08.2013
Другие материалы по этой песне:
  • Аккорды и текст

Страница создана 18.08.2013
http://primanota.ru/black-eyed-sceva/happy-face-chords.htm
Привет, Гость.
Предлагаем пройти революционный курс по гитаре.
Подарок от PrimaNota.Ru, забирай!