PrimaNota.ru - самый крупный в мире бесплатный архив песенных текстов, аккордов, табулатур и нот


Black Eyed Sceva - Confirmation Day - таба, видео

Регистрация Запомнить меня
Войти через:  Facebook Google Twitter Vk Yandex Mail.ru

Black Eyed Sceva - Confirmation Day - таба, видео

Печатать
Просмотров: 122
Black Eyed Sceva
Confirmation Day
words by Jeremy Post
music by Black Eyed Sceva
5 Minute Walk Label
(c) 1995 Unusual Woody Seed Pod Music

Verse

D-Am-Em-G

Break Inbetween

--0--0--0--0--0--0--0--3-
--0--0--0--0--0--0--0--0-
--4--4--4--4--4--4--2--0-
--4--4--4--4--4--4--2--0-
--x--x--x--x--x--x--0--2-
--2--2--3--2--2--3--0--3-


Verse
Break
Verse

Bridge

-----------------------------------0---
-----------------3-------------------3-
-----0---0-----0-------0---0-----0-----
---4---------4-------4---------4-------
-2---------3-------2---------3---------
-------0-----------------0-------------

Solo

--------------------------------------
-----------5-----8/7------------------
-7p5---5-7---7-4-----7---5-7-9-b7-----
-----7-----------------7--------------
--------------------------------------
--------------------------------------
(you might have to play around with that for awhile
 it's not perfect)

Verse
end with the
Bridge

     
Добавлено: 22.08.2013
Другие материалы по этой песне:
  • Аккорды и текст

Страница создана 22.08.2013
http://primanota.ru/black-eyed-sceva/confirmation-day-chords.htm
Привет, Гость.
Предлагаем пройти революционный курс по гитаре.
Подарок от PrimaNota.Ru, забирай!