PrimaNota.ru - самый крупный в мире бесплатный архив песенных текстов, аккордов, табулатур и нот


Black Eyed Sceva - Adrian James - таба, видео

Регистрация Запомнить меня
Войти через:  Facebook Google Twitter Vk Yandex Mail.ru

Black Eyed Sceva - Adrian James - таба, видео

Печатать
Просмотров: 94
Уроки эстрадного вокала в Санкт-Петербурге
		   Adrian James
by Black Eyed Sceva
(c) unusual woody see-pod music
Eclipsoes@aol.com

This is faaarrrrr from perfect, and there are probably a thousand ways
of doing this song. But here is the best I can do right now.

Capo 1st fret.  tabs relative to capo

Intro Soft
|--------------------------------------------------------------
|-x-x-x-x--x-x-x-----hree more times---------------------------
|-6-6-7-6--7-6-6-----------------------------------------------
|--------------------------------------------------------------
|--------------------------------------------------------------
|--------------------------------------------------------------
then
|--------------------------------------------------------------
|-x-x--x-x--x-x--x-x---x-x--x-x--x-x--x-x---x-x--x-x-x-x--x-x--
|-7-6--2-0--6-7---7-7--7-6--2-0--6-7---7-7--7-6--2-0-6-7---7-7-
|--------------------------------------------------------------
|--------------------------------------------------------------
|--------------------------------------------------------------

Louder
|-2--2-2-2-2-2-2-----------------------------------------------
|-3--3-3-3-3-3-3-----------------------------------------------
|-2--2-2-2-2-2-2-----------------------------------------------
|-0--0-0-0-0-0-0-----------------------------------------------
|-0--0-0-0-0-0-0-----------------------------------------------
|--------------------------------------------------------------

Tab 1:

       "It's father's day...               body celebrates..."
|-0-0-0-------0-0--0-0--0-0--0-0----0-0-0--0-0--0-0--0-0--0-0-r
|-2-2-3-------2-2--3-3--3-3--3-3----2-2-3--2-2--2-2--2-2--0-0-e
|-2-2-2-------2-2--2-2--2-2--2-2----2-2-2--2-2--2-2--2-2--2-2-p
|-2-2-0-------2-2--2-2--0-0--2-2----2-2-0--2-2--0-0--2-2--2-2-e
|-0-0-0-------0-0--0-0--0-0--0-0----0-0-0--0-0--0-0--0-0--2-2-a
|-0-0---------0-0--0-0--0-0--0-0----0-0----0-0--0-0--0-0--0-0-t

Tab 2 (Unsure of this one)
|--------------------------------------------------------------
|-x--x--x-x-x-x--x--x--x--x-x-x-x------------------------------
|-2--0--7-6-0-2--2--2--0--7-6-0-2------------------------------
|-0--0--0-0-0-0--0--0--0--0-0-0-0------------------------------
|--------------------------------------------------------------
|--------------------------------------------------------------

Tab 3:
"Aaaaaaaaaaaaaaaadrian  Jaaaaaaaaaaammes Left Mar  
|-0--0-0-3-2-0-0--0-0----0--0-0-3-2-0-0--0-0-------------------
|-3--2-2-3-3-2-3--3-3----3--2-2-3-3-2-3--3-3-------------------
|-2--2-2-2-2-2-2--2-2----2--2-2-2-2-2-2--2-2-------------------
|-0--0-0-0-0-0-0--0-0----0--0-0-0-0-0-0--0-0-------------------
|-0--0-0-0-0-0-0--0-0----0--0-0-0-0-0-0--0-0-------------------
|--------------------------------------------------------------
iiiiirrrreeeeee  and son   1/3 of the whole was gone"
|-0--0-0-3-2-0-0--0-0----0--0-0-3-2-0-0--0---------------------
|-3--2-2-3-3-2-3--3-3----3--2-2-3-3-2-3--3---------------------
|-2--2-2-2-2-2-2--2-2----2--2-2-2-2-2-2--2---------------------
|-0--0-0-0-0-0-0--0-0----0--0-0-0-0-0-0--0---------------------
|-0--0-0-0-0-0-0--0-0----0--0-0-0-0-0-0--0---------------------
|--------------------------------------------------------------

Tab 4  "been reeeeeplaced..."
|---0-2--3--3--------5--3--------------------------------------
|--3-3-3-----3-----3--3---3---seven more times-----------------
|-2-----2-----2---2-2--2-2-------------------------------------
|--------------------------------------------------------------
|----------------0---------------------------------------------
|--------------------------------------------------------------
"Sometimes...I wonder if I..."
|-2------------------------------------------------------------
|-3------------------------------------------------------------
|-2------------------------------------------------------------
|--------------------------------------------------------------
|--------------------------------------------------------------
|--------------------------------------------------------------

Tab 5
|-0h2-3-2--0h2-5-2--0-0--0-0-3-2-0-0---------------------------
|-3---3-3--3---3-3--3-2--3-2-3-3-2-3---------------------------
|-2---2-2--2---2-2--2-2--2-2-2-2-2-2---------------------------
|--------------------------------------------------------------
|--------------------------------------------------------------
|--------------------------------------------------------------

Lyrics/Order

Intro

Tab 1
  It's father's day everbody celebrates but me
I forgot again for the 23 year in a row
but I don't know If I'm bitter or just a bit confused
on days like this, how could you how could you not be

Tab 2

Tab 1
  the letter I got 
wrinkled and yellow from years hidden in some cardboard box
mom didn't want me to see until I was old enough
what advice to give your son you said
do what think is right, in life you can never go wrong

Chorus:
Tab 3
When Adrian James left Marie and Son
One third of the whole was gone

Tab 1
Did you miss the part about until death do us part well did that
wedding ring really not mean anything to you
Adrian if I could meet you now would you act anything like a father should
Would you find it hard to call me son

Chorus

Tab 4
My father, fallible father
has been replaced, been replaced
by my Father, heavenly Father
Some times, I wonder if I
would ever grow to love anyone like him
Tab 3
sometimes I wonder if I
would ever grow to look anything like him

Tab 5

Then Tab 2 a whole bunch, with solo (which i didn't tab out)

I am unsure of a lot of this, specifically Tab 2...so it's fair game for corrections.
     
Добавлено: 25.06.2013
Другие материалы по этой песне:
  • Аккорды и текст

Страница создана 25.06.2013
http://primanota.ru/black-eyed-sceva/adrian-james-chords.htm
Привет, Гость.
Предлагаем пройти революционный курс по гитаре.
Подарок от PrimaNota.Ru, забирай!