PrimaNota.ru - самый крупный в мире бесплатный архив песенных текстов, аккордов, табулатур и нот


Black Dahlia Murder - Seppuku - таба, видео

Регистрация Запомнить меня
Войти через:  Facebook Google Twitter Vk Yandex Mail.ru

Black Dahlia Murder - Seppuku - таба, видео

Печатать
Просмотров: 104
-----------------------------------------------------------------------------

                          The Black Dahlia Murder

                                 Seppuku

                         Ryan Knight Guitar   Drop C

-----------------------------------------------------------------------------

Intro

|-----------------------------------------------------------------------|
|-----------------------------------------------------------------------|
|-----------------------------------------------------------------------|
|-----------------------------------------------------------------------|
|-------------------------3-2----------------------------3-2------------|
|-0------------0--0-1-4-1--------0------------0--0-1-4-1----------------|

|-----------------------------------------------------------------------------|
|-----------------------------------------------------------------------------|
|-----------------------------------------------------------------------------|
|-----------------------------------------------------------------------------|
|----7---5---------7---5-----------7-5------7---5---------7---5---------------|
|0-5---0---7---0-5---0---7-0-5-8-5------0-5---0---7---0-5---0---7-0-5-8-5-8-7-|

Verse 1
            pm............                    pm       pm
|-----------------------------------------------------------------------|
|-----------------------------------------------------------------------|
|-----------------------------------------------------------------------|
|------------------------------------------7-6----10-9------------------|
|----7---5-----------------------7---5----------------------------------|
|0-5---0---7---0-0-0*-0*-0*--0-5---0---7-0-----0*-------0*--------------|

            pm............             pm       pm
|-----------------------------------------------------------------------|
|-----------------------------------------------------------------------|
|-----------------------------------------------------------------------|
|-----------------------------9-6----------10-9-------------------------|
|----7---5--------------------------------------------------------------|
|0-5---0---7---0-0-0*-0*-0*-------0-0-0*--------0-0-0*------------------|

            pm............                    pm       pm
|-----------------------------------------------------------------------|
|-----------------------------------------------------------------------|
|-----------------------------------------------------------------------|
|------------------------------------------7-6----10-9------------------|
|----7---5-----------------------7---5----------------------------------|
|0-5---0---7---0-0-0*-0*-0*--0-5---0---7-0-----0*-------0*--------------|

            pm............             pm       pm
|-----------------------------------------------------------------------|
|-----------------------------------------------------------------------|
|-----------------------------------------------------------------------|
|-----------------------------9-6----------10-9-------------------------|
|----7---5--------------------------------------------------------------|
|0-5---0---7---0-0-0*-0*-0*-------0-0-0*--------0-0-0*------------------|

|-----------------------------------------------------------------------|
|-----------------------------------------------------------------------|
|-----------------------------------------------------------------------|
|---7-8----7-8----5-7---5-7----7-8---7-8--------------------------------|
|-----------------------------------------5-3-5-6-5-3-------------------|
|-5------5------3-----3------5-----5------------------6-3---------------|

|-----------------------------------------------------------------------|
|-----------------------------------------------------------------------|
|-----------------------------------------------------------------------|
|---7-8----7-8----5-7---5-7----7-8---7-8--------------------------------|
|-------------------------------------------5-3-5-6---------------------|
|-5------5------3-----3------5-----5------0-----------------------------|

Refrain

|------------------------------------------7*-8*-7*-8*-7*-4*------------|
|--6*-5*-6*-6*-5*-5*-----------6*-5*-6*-5*------------------------------|
|--------------------7*-5*-4*-------------------------------------------|
|-----------------------------------------------------------------------|
|-----------------------------------------------------------------------|
|-----------------------------------------------------------------------|

|------------------------------------------7*-8*-7*-8*-7*-4*------------|
|--6*-5*-6*-6*-5*-5*-----------6*-5*-6*-5*------------------------------|
|--------------------7*-5*-4*-------------------------------------------|
|-----------------------------------------------------------------------|
|-----------------------------------------------------------------------|
|-----------------------------------------------------------------------|

Verse 2

            pm............                    pm       pm
|-----------------------------------------------------------------------|
|-----------------------------------------------------------------------|
|-----------------------------------------------------------------------|
|------------------------------------------7-6----10-9------------------|
|----7---5-----------------------7---5----------------------------------|
|0-5---0---7---0-0-0*-0*-0*--0-5---0---7-0-----0*-------0*--------------|

            pm............             pm       pm
|-----------------------------------------------------------------------|
|-----------------------------------------------------------------------|
|-----------------------------------------------------------------------|
|-----------------------------9-6----------10-9-------------------------|
|----7---5--------------------------------------------------------------|
|0-5---0---7---0-0-0*-0*-0*-------0-0-0*--------0-0-0*------------------|

            pm............                    pm       pm
|-----------------------------------------------------------------------|
|-----------------------------------------------------------------------|
|-----------------------------------------------------------------------|
|------------------------------------------7-6----10-9------------------|
|----7---5-----------------------7---5----------------------------------|
|0-5---0---7---0-0-0*-0*-0*--0-5---0---7-0-----0*-------0*--------------|

            pm............             pm       pm
|-----------------------------------------------------------------------|
|-----------------------------------------------------------------------|
|-----------------------------------------------------------------------|
|-----------------------------9-6----------10-9-------------------------|
|----7---5--------------------------------------------------------------|
|0-5---0---7---0-0-0*-0*-0*-------0-0-0*--------0-0-0*------------------|

|-----------------------------------------------------------------------|
|-----------------------------------------------------------------------|
|-----------------------------------------------------------------------|
|---7-8----7-8----5-7---5-7----7-8---7-8--------------------------------|
|-----------------------------------------5-3-5-6-5-3-------------------|
|-5------5------3-----3------5-----5------------------6-3---------------|

|-----------------------------------------------------------------------|
|-----------------------------------------------------------------------|
|-----------------------------------------------------------------------|
|---7-8----7-8----5-7---5-7----7-8---7-8--------------------------------|
|-------------------------------------------5-3-5-6---------------------|
|-5------5------3-----3------5-----5------0-----------------------------|

Refrain

|------------------------------------------7*-8*-7*-8*-7*-4*------------|
|--6*-5*-6*-6*-5*-5*-----------6*-5*-6*-5*------------------------------|
|--------------------7*-5*-4*-------------------------------------------|
|-----------------------------------------------------------------------|
|-----------------------------------------------------------------------|
|-----------------------------------------------------------------------|

|------------------------------------------7*-8*-7*-8*-7*-4*------------|
|--6*-5*-6*-6*-5*-5*-----------6*-5*-6*-5*------------------------------|
|--------------------7*-5*-4*-------------------------------------------|
|-----------------------------------------------------------------------|
|-----------------------------------------------------------------------|
|-----------------------------------------------------------------------|

|-4--5--7--8---7--5--4--1---4--5--7--8--10--12--13--12--17--16----------|
|-----------------------------------------------------------------------|
|-----------------------------------------------------------------------|
|-----------------------------------------------------------------------|
|-----------------------------------------------------------------------|
|-----------------------------------------------------------------------|

   pm....   pm....
|-------------------------------------------------|
|-------------------------------------------------|
|-------------------------------------------------|
|-------------------------------------------------|
|-------------------------------------------------|
|4*-0-4-0-1*-0-1-0--0-4-5-0-8-7-0-5-4-0-4-1-0-1-0-|

   pm....   pm....
|-------------------------------------------------|
|-------------------------------------------------|
|-------------------------------------------------|
|---------------------------------7-6---10-9------|
|---------------------------5---------------------|
|4*-0-4-0-1*-0-1-0--0-8-7-0---7-0-----0-----------|

   pm....   pm....
|-------------------------------------------------|
|-------------------------------------------------|
|-------------------------------------------------|
|-------------------------------------------------|
|-------------------------------------------------|
|4*-0-4-0-1*-0-1-0--0-4-5-0-8-7-0-5-4-0-4-1-0-1-0-|

|-------------------------------------------------|
|-------------------------------------------------|
|-------------------------------------------------|
|-------------------------------------------------|
|-------------------------------------------------|
|4*-0-4-0-1*-0-1-0-5-7-8-10-12-12-----------------|

Solo (hope is ok but im not very sure)

|--------------------------------------------------------------------|
|-12^13^12-----------------------------------10-12-13-12-10-12^13^12-|
|----------14-----------------------------10-------------------------|
|-------------15-----------------------10----------------------------|
|----------------15-----------------10-------------------------------|
|-------------------17-12-8-8-9-8-9----------------------------------|

|-12---------------12-------13-------15-------17-20----20--17-|
|----13-12-10-8-10----10-12----12-13----13-15-----------------|
|-------------------------------------------------------------|
|-------------------------------------------------------------|
|-------------------------------------------------------------|
|-------------------------------------------------------------|

|-17-12------------12-------------------------------------|
|-------13-12-10-9----13-10----------14-------------------|
|---------------------------14-11-10----15-11----------14-|
|---------------------------------------------15-12-10----|
|---------------------------------------------------------|
|---------------------------------------------------------|

|----------------------------------------------------------------------|
|-12-------------------------------------------17-------18-15----17-15-|
|----14----------14-17-14----14----------14-17----17----------14-------|
|-------15-14-15----------15----15----14-------------14----------------|
|----------------------------------15----------------------------------|
|----------------------------------------------------------------------|

|------------------------12-13-15-13-17---19-------------------------|
|--------13-12--12-13-15---------------------22-------------------16-|
|-14-14-----------------------------------------21-17----------17----|
|-----------------------------------------------------18-15-18-------|
|--------------------------------------------------------------------|
|--------------------------------------------------------------------|

|----------------------------|
|----------17-17-------------|
|-17-------------18-16-14-13-|            end of the solo =)
|----19-18-------------------|
|----------------------------|
|----------------------------|

Refrain

|------------------------------------------7*-8*-7*-8*-7*-4*------------|
|--6*-5*-6*-6*-5*-5*-----------6*-5*-6*-5*------------------------------|
|--------------------7*-5*-4*-------------------------------------------|
|-----------------------------------------------------------------------|
|-----------------------------------------------------------------------|
|-----------------------------------------------------------------------|

|------------------------------------------7*-8*-7*-8*-7*-4*------------|
|--6*-5*-6*-6*-5*-5*-----------6*-5*-6*-5*------------------------------|
|--------------------7*-5*-4*-------------------------------------------|
|-----------------------------------------------------------------------|
|-----------------------------------------------------------------------|
|-----------------------------------------------------------------------|

Outro

|-------------------------------------------------------7--8---7-8-7-4---|
|-6-6-6-5---6-6-6-5---5-5-5---------6-6-6-5---6-6-6-5--------------------|
|---------------------------7-5-4----------------------------------------|
|------------------------------------------------------------------------|
|------------------------------------------------------------------------|
|------------------------------------------------------------------------|

                                       THE END

* means picked multiple times

PS in the refrain, every note is bended just a little

for every question or correction, contact me asap!
Добавлено: 01.01.2014
Другие материалы по этой песне:
  • Аккорды и текст

Страница создана 01.01.2014
http://primanota.ru/black-dahlia-murder/seppuku-chords.htm
Привет, Гость.
Предлагаем пройти революционный курс по гитаре.
Подарок от PrimaNota.Ru, забирай!