PrimaNota.ru - самый крупный в мире бесплатный архив песенных текстов, аккордов, табулатур и нот


Black Dahlia Murder - Paint It Black - текст песни, таба, бас-таба, видео

Регистрация Запомнить меня
Войти через:  Facebook Google Twitter Vk Yandex Mail.ru

Black Dahlia Murder - Paint It Black - текст песни, таба, бас-таба, видео

Печатать
Просмотров: 266
Уроки эстрадного вокала в Санкт-Петербурге
Авторы музыки: Mick Jagger, Keith Richards
Авторы текста: Mick Jagger
Artist: The black dahlia murder
Song: Paint it black
Album: A Cold Blooded Epitaph

tuning- drop db

eb-------------------------------------------|
bb--------------acoustic till here|----------|
gb--------------------------------|----------|
db--------------------------------V----------|
ab-5-7-8-10-8-7-5-5-4-5-7-457-75-4v~~87-78-10|
db-0-0-0--0-0-0-0-0-0-0-0-000-00-0---87-78-10|


eb----------------------------------------------|
bb----------------------------------------------|
gb----------------------------------------------| x 2
db-0--------------------------------------------|
ab-0-5--7--8--10--8--7--5--5--4--5--7--5--44444-|
db-0--------------------------------------------|
   .

eb----------------|
bb----------------|
gb----------------|
db----------------|  x3
ab---55--44--7--0-|
db-00--00--00-00--|
   ..  ..  .. ..

(repeat first part without the opens)

eb------------------------------------|
bb------------------------------------|
gb------------------------------------|
db------------------------------------|
ab-0000-0000-0000-0000-0000-0000-0000-|
db-0000-0000-0000-0000-0000-0000-0000-|
   |..| |..| |..| |..| |..| |..| |..|


Добавлено: 31.07.2012
Другие материалы по этой песне:

Страница создана 06.03.2012
http://primanota.ru/black-dahlia-murder/paint-it-black-chords.htm
Привет, Гость.
Предлагаем пройти революционный курс по гитаре.
Подарок от PrimaNota.Ru, забирай!