PrimaNota.ru - самый крупный в мире бесплатный архив песенных текстов, аккордов, табулатур и нот


Black Dahlia Murder - I Only Worship What You Bleed - таба, видео

Регистрация Запомнить меня
Войти через:  Facebook Google Twitter Vk Yandex Mail.ru

Black Dahlia Murder - I Only Worship What You Bleed - таба, видео

Печатать
Просмотров: 135
-------------------------------------------------------------------------------
I ONLY WORSHIP WHAT YOU BLEED – The Black Dahlia Murder
-------------------------------------------------------------------------------
Tabbed by: .hopespaul.
Email: Stulgaitis@gmail.com

Tuning: standard C

INTRO
e|---------------------------------------------------------------------------|
B|---------------------------------------------------------------------------|
G|---------------------------------------------------------------------------|
D|-2---------------5---5-------4---4----------------2---2-------4------------|
A|-------2-3-2-------------2------------------4-------------1----------------|
E|---0-3-------3-0---0---0---0---0----0-2-0-2---2-0---0---0---0--------------|
  P.M. . . . . . .   .   .   .   .                .   .   .   .

e|---------------------------------------------------------------------------|
B|---------------------------------------------------------------------------|
G|---------------------------------------------------------------------------|
D|-----------------5---5-------4---4----------------2---2-------4------------|
A|-------2-3-2-------------2------------------4-------------1----------------|
E|-3-0-3-------3-0---0---0---0---0----0-2-0-2---2-0---0---0---0--------------|

e|---------------------------------------------------------------------------|
B|---------------------------------------------------------------------------|
G|---------------------------------------------------------------------------|
D|-2---------------5---5-------4---4--------------------------4--------------|
A|-------2-3-2-------------2------------------4------3--2--5--2--2~----------|
E|---0-3-------3-0---0---0---0---0----0-2-0-2---2-0--3--2--3-----0~----------|
					.  .  .   PICKSLIDE

VERSE

e|---------------------------------------------------------------------------|
B|---------------------------------------------------------------------------|
G|---------------------------------------------------------------------------|
D|---------------------------------------------------------------------------|x4
A|-10-------9-------10-------9--------7-------9-------7-------9--------------|
E|----7-7-7---7-7-7----7-7-7---7-7-7----6-6-6---6-6-6---6-6-6---6-6-6--------|

PRE-CHORUS

e|---------------------------------------------------------------------------|
B|---------------------------------------------------------------------------|
G|---------------------------------------------------------------------------|
D|-5~-----------3~--4-3-4----------------------------------------------------|
A|-5~-----------1~--2-1-2------2----------2----------------------------------|
E|-3~--222-222------------0--0----0--2--3------------------------------------|
	Trp trp            					  >x2

e|---------------------------------------------------------------------------|
B|---------------------------------------------------------------------------|
G|---------------------------------------------------------------------------|
D|-5~-----------3~--4-3-4----------------------------------------------------|
A|-5~-----------1~--2-1-2--------?????????????-------------------------------|
E|-3~--222-222----------------0000-0000-0000-0000----------------------------|

e|-----------------------------------------------------------------------------|
B|-----------------------------------------------------------------------------|
G|-----------------------------------------------------------------------------|
D|------------------------------------------------------5~---------------------|
A|-2~--------------------2-1-----2~-----------------------4~-------------------|
E|----333-333-2-0--2-0-2-----2------333-333-2-0--2-0-2-------------------------|
                        ----------------------|

CHORUS (all tremolo picked) (gtr. 1?)

e|---------------------------------------------------------------------------|
B|---------------------------------------------------------------------------|
G|---------------------------------------------------------------------------|
D|-----------------------------------------------------4-3-------------------|
A|-5--2--5--2-----2-----4---4-2-1--------5-2-5-2---5-4-----4-5-2--1~-----2---|
E|-------------3----------0-------3-2~-----------3----------------1~-----0---|

SOLO!
  < ----------------------------------------------------------------------------| >
e|19--15--18--14--15------14----------------------------------------------------|
B|--------------------17------15------------------15--14--17^19(bend)-----------|
G|--------------------------------------------16--------------------------------|
D|-----------------------------------------16-----------------------------------|
A|----------------------------------14--17--------------------------------------|
E|------------------------------------------------------------------------------|

e|----------------17^(19)----------------14^15----14-12------------------------|
B|------------15----------------------15----------------15-12-14^15^14---------|
G|---------16----------------------16------------------------------------------|
D|------16----------------------16---------------------------------------------|
A|14-17-------------------14-17------------------------------------------------|
E|-----------------------------------------------------------------------------|
    Triplet               triplet        



	
	
Добавлено: 10.05.2012
Другие материалы по этой песне:
  • Аккорды и текст

Страница создана 10.05.2012
http://primanota.ru/black-dahlia-murder/i-only-worship-what-you-bleed-chords.htm
Привет, Гость.
Предлагаем пройти революционный курс по гитаре.
Подарок от PrimaNota.Ru, забирай!