PrimaNota.ru - самый крупный в мире бесплатный архив песенных текстов, аккордов, табулатур и нот


Black Dahlia Murder - Elder Misanthropy - текст песни, таба, бас-таба, видео

Регистрация Запомнить меня
Войти через:  Facebook Google Twitter Vk Yandex Mail.ru

Black Dahlia Murder - Elder Misanthropy - текст песни, таба, бас-таба, видео

Печатать
Просмотров: 115
<#> = Pinch Harmonics * = Palm Mute


D  :----------------|----------------|------------------|------------------|
A  :----------------|----------------|------------------|------------------|
F  :----------------|----------------|------------------|------------------|
C  :8---------------|5---------------|------------------|------------------|
G  :8---------------|5---------------|----12---10---8---|7---8---7---5-7-5-|
C  :8---------------|5---------------|0-0----0----0---0-|--0---0---0-------|

D  :------------------|------------------|----------------|----------------|
A  :------------------|------------------|----------------|----------------|
F  :------------------|------------------|----------------|----------------|
C  :------------------|------------------|----------------|----------------|
G  :----12---10---8---|7---8---7---5-7-5-|----7---8---7-8-|----8---7---7-8-|
C  :0-0----0----0---0-|--0---0---0-------|8-8---8---8-----|7-7---7---7-----|

D  :------------------|------------------|------------------|--------------|
A  :------------------|------------------|------------------|--------------|
F  :------------------|------------------|------------------|--------------|
C  :------------------|------------------|------------------|--------------|
G  :----12---10---8---|7---8---7---5-7-5-|----12---10---8---|7---8---7---5-|
C  :0-0----0----0---0-|--0---0---0-------|0-0----0----0---0-|--0---0---0---|

D  :----|----------------|----------------|----------------|----------------|
A  :----|----------------|----------------|----------------|----------------|
F  :----|----------------|----------------|----------------|----------------|
C  :----|----------------|----------------|0-0-*-0-0-0-*-0-|0-0-*-0-0-0-*---|
G  :7-5-|----7---8---7-8-|----8---7---7-8-|0-0-*-0-0-0-*-0-|0-0-*-0-0-0-7-8-|
C  :----|8-8---8---8-----|7-7---7---7-----|0-0-*-0-0-0-*-0-|0-0-*-0-0-0-*---|

D  :--|-----------------------------------|--------------------------------|
A  :--|-----------------------------------|--------------------------------|
F  :--|-----------------------------------|--------------------------------|
C  :--|-----------------------------------|--------------------------------|
G  :7-|8-8-8-8-7-7-7-7-8-8-8-8-10-10-10-10|12-12-12-12-10-10-10-10-8-8-8-8-|
C  :--|-----------------------------------|--------------------------------|

D  :------|----------------|------------------|---------------------------|
A  :------|----------------|------------------|---------------------------|
F  :------|----------------|------------------|---------------------------|
C  :------|0-0-*-0-0-0-*-0-|0-0-*-0-0-0-*-----|---------------------------|
G  :<7>---|0-0-*-0-0-0-*-0-|0-0-*-0-0-0-7-8-7-|8-8-8-8-7-7-7-7-8-8-8-8-10-|
C  :------|0-0-*-0-0-0-*-0-|0-0-*-0-0-0-*-----|---------------------------|

D  :--------|------------------------------|----------------|--------------|
A  :--------|------------------------------|----------------|--------------|
F  :--------|------------------------------|----------------|--------------|
C  :--------|------------------------------|0-0-*-0-0-0-*-0-|0-0-*-0-0-0-*-|
G  :10-10-10|8-8-8-8-7-7-7-7-8-8-8-8-<4>---|0-0-*-0-0-0-*-0-|0-0-*-0-0-0-7-|
C  :--------|------------------------------|0-0-*-0-0-0-*-0-|0-0-*-0-0-0-*-|

D  :----|-----------------------------------|------------------------------|
A  :----|-----------------------------------|------------------------------|
F  :----|-----------------------------------|------------------------------|
C  :----|-----------------------------------|------------------------------|
G  :8-7-|8-8-8-8-7-7-7-7-8-8-8-8-10-10-10-10|12-12-12-12-10-10-10-10-8-8-8-|
C  :----|-----------------------------------|------------------------------|

D  :--------|----------------|------------------|---------------------------|
A  :--------|----------------|------------------|---------------------------|
F  :--------|----------------|------------------|---------------------------|
C  :--------|0-0-*-0-0-0-*-0-|0-0-*-0-0-0-*-----|---------------------------|
G  :8-<7>---|0-0-*-0-0-0-*-0-|0-0-*-0-0-0-7-8-7-|8-8-8-8-7-7-7-7-8-8-8-8-10-|
C  :--------|0-0-*-0-0-0-*-0-|0-0-*-0-0-0-*-----|---------------------------|

D  :--------|------------------------------|----------------|---------------|
A  :--------|------------------------------|----------------|---------------|
F  :--------|------------------------------|----------------|---------------|
C  :--------|------------------------------|0---------------|--------0-0-*--|
G  :10-10-10|8-8-8-8-7-7-7-7-8-8-8-8-<4>---|0---------------|--------0-0-*--|
C  :--------|------------------------------|0---------------|--------0-0-*--|

D  :-|-------------------------------|-----------------------------------|--|
A  :-|-------------------------------|-----------------------------------|--|
F  :-|-------------------------------|-----------------------------------|--|
C  :-|-------------------------------|-----------------------------------|--|
G  :-|--------7-7-7-7-8-8-8-8--------|7-7-7-7-8-8-8-8-7-7-7-7------------|--|
C  :-|0-0-0-0-----------------0-0-0-0|------------------------10-10-10-10|8-|

D  :-----------------------------|-----------------------------------|------|
A  :-----------------------------|-----------------------------------|------|
F  :-----------------------------|-----------------------------------|------|
C  :-----------------------------|-----------------------------------|------|
G  :------7-7-7-7-8-8-8-8--------|7-7-7-7-8-8-8-8-10-10-10-10-8-8-8-8|------|
C  :8-8-8-----------------8-8-8-8|-----------------------------------|0-0-0-|

D  :-------------------------|-----------------------------------|-----------|
A  :-------------------------|-----------------------------------|-----------|
F  :-------------------------|-----------------------------------|-----------|
C  :-------------------------|-----------------------------------|-----------|
G  :--7-7-7-7-8-8-8-8--------|7-7-7-7-8-8-8-8-7-7-7-7------------|8-------10-|
C  :0-----------------0-0-0-0|------------------------10-10-10-10|-----------|

D  :-------|----------------|-------------------------------|--------------|
A  :-------|----------------|-------------------------------|--------------|
F  :-------|----------------|-------------------------------|--------------|
C  :-------|7-------8-------|-------------------------------|--------------|
G  :-------|----------------|--------7-7-7-7-8-8-8-8--------|7-7-7-7-8-8-8-|
C  :-------|----------------|0-0-0-0-----------------0-0-0-0|--------------|

D  :---------------------|-------------------------------|----------------|
A  :---------------------|-------------------------------|----------------|
F  :---------------------|-------------------------------|----------------|
C  :---------------------|-------------------------------|----------------|
G  :8-7-7-7-7------------|--------7-7-7-7-8-8-8-8--------|7-7-7-7-8-8-8-8-|
C  :----------10-10-10-10|8-8-8-8-----------------8-8-8-8|----------------|

D  :-------------------|-------------------------------|--------------------|
A  :-------------------|-------------------------------|--------------------|
F  :-------------------|-------------------------------|--------------------|
C  :-------------------|-------------------------------|--------------------|
G  :10-10-10-10-8-8-8-8|--------7-7-7-7-8-8-8-8--------|7-7-7-7-8-8-8-8-7-7-|
C  :-------------------|0-0-0-0-----------------0-0-0-0|--------------------|

D  :---------------|---------------------------------------|----------------|
A  :---------------|---------------------------------------|----------------|
F  :---------------|---------------------------------------|----------------|
C  :---------------|---------------------------------------|7-7-7-7-7-7-7-7-|
G  :7-7------------|8-8-8-8-8-8-8-8-10-10-10-10-10-10-10-10|----------------|
C  :----10-10-10-10|---------------------------------------|----------------|

D  :--------|------------------|------------------|------------------|------|
A  :--------|------------------|------------------|------------------|------|
F  :--------|------------------|------------------|------------------|------|
C  :8-------|------------------|------------------|------------------|------|
G  :--------|----12---10---8---|7---8---7---5-7-5-|----12---10---8---|7---8-|
C  :--------|0-0----0----0---0-|--0---0---0-------|0-0----0----0---0-|--0---|

D  :------------|----------------|----------------|------------------|------|
A  :------------|----------------|----------------|------------------|------|
F  :------------|----------------|----------------|------------------|------|
C  :------------|----------------|----------------|------------------|------|
G  :--7---5-7-5-|----7---8---7-8-|----8---7---7-8-|----12---10---8---|7---8-|
C  :0---0-------|8-8---8---8-----|7-7---7---7-----|0-0----0----0---0-|--0---|

D  :------------|------------------|------------------|----------------|----|
A  :------------|------------------|------------------|----------------|----|
F  :------------|------------------|------------------|----------------|----|
C  :------------|------------------|------------------|----------------|----|
G  :--7---5-7-5-|----12---10---8---|7---8---7---5-7-5-|----7---8---7-8-|----|
C  :0---0-------|0-0----0----0---0-|--0---0---0-------|8-8---8---8-----|7-7-|

D  :------------|----------------|------------------|----------------------|
A  :------------|----------------|------------------|----------------------|
F  :------------|----------------|------------------|----------------------|
C  :------------|0-0-*-0-0-0-*-0-|0-0-*-0-0-0-*-----|----------------------|
G  :8---7---7-8-|0-0-*-0-0-0-*-0-|0-0-*-0-0-0-7-8-7-|8-8-8-8-7-7-7-7-8-8-8-|
C  :--7---7-----|0-0-*-0-0-0-*-0-|0-0-*-0-0-0-*-----|----------------------|

D  :-------------|--------------------------------------|----------------|--|
A  :-------------|--------------------------------------|----------------|--|
F  :-------------|--------------------------------------|----------------|--|
C  :-------------|--------------------------------------|0-0-*-0-0-0-*-0-|0-|
G  :8-10-10-10-10|12-12-12-12-10-10-10-10-8-8-8-8-<7>---|0-0-*-0-0-0-*-0-|0-|
C  :-------------|--------------------------------------|0-0-*-0-0-0-*-0-|0-|

D  :----------------|-----------------------------------|------------------|
A  :----------------|-----------------------------------|------------------|
F  :----------------|-----------------------------------|------------------|
C  :0-*-0-0-0-*-----|-----------------------------------|------------------|
G  :0-*-0-0-0-7-8-7-|8-8-8-8-7-7-7-7-8-8-8-8-10-10-10-10|8-8-8-8-7-7-7-7-8-|
C  :0-*-0-0-0-*-----|-----------------------------------|------------------|

D  :------------|----------------|------------------|----------------------|
A  :------------|----------------|------------------|----------------------|
F  :------------|----------------|------------------|----------------------|
C  :------------|0-0-*-0-0-0-*-0-|0-0-*-0-0-0-*-----|----------------------|
G  :8-8-8-<4>---|0-0-*-0-0-0-*-0-|0-0-*-0-0-0-7-8-7-|8-8-8-8-7-7-7-7-8-8-8-|
C  :------------|0-0-*-0-0-0-*-0-|0-0-*-0-0-0-*-----|----------------------|

D  :-------------|--------------------------------------|----------------|--|
A  :-------------|--------------------------------------|----------------|--|
F  :-------------|--------------------------------------|----------------|--|
C  :-------------|--------------------------------------|0-0-*-0-0-0-*-0-|0-|
G  :8-10-10-10-10|12-12-12-12-10-10-10-10-8-8-8-8-<7>---|0-0-*-0-0-0-*-0-|0-|
C  :-------------|--------------------------------------|0-0-*-0-0-0-*-0-|0-|

D  :----------------|----------------|----------------|-----------------|----|
A  :----------------|----------------|----------------|-----------------|----|
F  :----------------|----------------|----------------|-----------------|----|
C  :0-*-0-0-0-*-----|--------5-------|7-------8-----0-|----7---10-8-7---|----|
G  :0-*-0-0-0-7-8-7-|8---------------|--------------0-|-----------------|----|
C  :0-*-0-0-0-*-----|----------------|--------------0-|--0---0--------8-|--8-|

D  :---------------|-------------------|----------------|------------------|
A  :---------------|-------------------|----------------|------------------|
F  :---------------|-------------------|----------------|------------------|
C  :-7---10-8-7----|-----7----10-8-7---|--8-7---8-7-----|----7---10-8-7----|
G  :---------------|-------------------|--------------0-|------------------|
C  :---8--------10-|--10---10--------5-|------5-----5-0-|--0---0--------8--|

D  :-----------------|-------------------|----------------|-----------------|
A  :-----------------|-------------------|----------------|-----------------|
F  :-----------------|-------------------|----------------|-----------------|
C  :---7---10-8-7----|-----7----10-8-7---|--8-7---8-7-----|----7---10-8-7---|
G  :-----------------|-------------------|--------------0-|-----------------|
C  :-8---8--------10-|--10---10--------5-|------5-----5-0-|--0---0--------8-|

D  :-|------------------|-------------------|----------------|---------------|
A  :-|------------------|-------------------|----------------|---------------|
F  :-|------------------|-------------------|----------------|---------------|
C  :-|----7---10-8-7----|-----7----10-8-7---|--8-7---8-7-----|----7---10-8-7-|
G  :-|------------------|-------------------|--------------0-|---------------|
C  :-|--8---8--------10-|--10---10--------5-|------5-----5-0-|--0---0--------|

D  :---|------------------|-------------------|----------------|------------|
A  :---|------------------|-------------------|----------------|------------|
F  :---|------------------|-------------------|----------------|------------|
C  :---|----7---10-8-7----|-----7----10-8-7---|--8-7---8-7-----|------------|
G  :---|------------------|-------------------|----------------|0-0-0-------|
C  :-8-|--8---8--------10-|--10---10--------5-|------5-----5---|0-0-0-0-0-0-|

D  :------|-----------------|------------------|------------------|----------|
A  :------|-----------------|------------------|------------------|----------|
F  :------|-----------------|------------------|------------------|----------|
C  :------|9---10---9---6---|------------------|------------------|----------|
G  :------|7----8---7---4---|0-0-0-------------|--5---------<4>---|0-0-0-----|
C  :0-0-0-|--0----0---0-----|0-0-0-0-0-0-0-0-0-|8---8-7-5-7-------|0-0-0-0-0-|

D  :---------|-----------------|------------------|------------------|------|
A  :---------|-----------------|------------------|------------------|------|
F  :---------|-----------------|------------------|------------------|------|
C  :---------|9---10---9---6---|------------------|------------------|------|
G  :---------|7----8---7---4---|0-0-0-------------|--5---------<4>---|0-0-0-|
C  :-0-0-0-0-|--0----0---0-----|0-0-0-0-0-0-0-0-0-|8---8-7-5-7-------|0-0-0-|

D  :--------------|-----------------|--------------------|-----------------|
A  :--------------|-----------------|--------------------|-----------------|
F  :--------------|-----------------|--------------------|-----------------|
C  :--------------|9---10---9---6---|--------------------|-----------------|
G  :0-0-0-0-0-0-0-|7----8---7---4---|0-0-0-0-0-0-0-0-0-0-|--5---------<4>--|
C  :0-0-0-0-0-0-0-|--0----0---0-----|0-0-0-0-0-0-0-0-0-0-|8---8-7-5-7------|

D  :-|--------------------|-----------------|--------------------|----------|
A  :-|--------------------|-----------------|--------------------|----------|
F  :-|--------------------|-----------------|--------------------|----------|
C  :-|--------------------|9---10---9---6---|--------------------|----------|
G  :-|0-0-0-0-0-0-0-0-0-0-|7----8---7---4---|0-0-0-0-0-0-0-0-0-0-|--5-------|
C  :-|0-0-0-0-0-0-0-0-0-0-|--0----0---0-----|0-0-0-0-0-0-0-0-0-0-|8---8-7-5-|

D  :--------|-------------------------------|------------------------------|
A  :--------|-------------------------------|------------------------------|
F  :--------|-------------------------------|------------------------------|
C  :--------|-------------------------------|------------------------------|
G  :--<4>---|7-7-7-7-7-7-7-7-7-7-7-7-8-8-8-8|10-10-10-10-10-10-10-10-8-8-8-|
C  :7-------|-------------------------------|------------------------------|

D  :---------|---------------------------------------|----------------------|
A  :---------|---------------------------------------|----------------------|
F  :---------|---------------------------------------|----------------------|
C  :---------|---------------------------------------|----------------------|
G  :8-7-7-7-7|8-8-8-8-8-8-8-8-10-10-10-10-10-10-10-10|8-8-8-8-8-8-8-8-7-7-7-|
C  :---------|---------------------------------------|----------------------|

D  :---------|-------------------------------|------------------------------|
A  :---------|-------------------------------|------------------------------|
F  :---------|-------------------------------|------------------------------|
C  :---------|-------------------------------|------------------------------|
G  :7-7-7-7-7|7-7-7-7-7-7-7-7-7-7-7-7-8-8-8-8|10-10-10-10-10-10-10-10-8-8-8-|
C  :---------|-------------------------------|------------------------------|

D  :---------|---------------------------------------|----------------------|
A  :---------|---------------------------------------|----------------------|
F  :---------|---------------------------------------|----------------------|
C  :---------|---------------------------------------|----------------------|
G  :8-7-7-7-7|8-8-8-8-8-8-8-8-10-10-10-10-10-10-10-10|8-8-8-8-8-8-8-8-7-7-7-|
C  :---------|---------------------------------------|----------------------|

D  :---------|-------------------------------|------------------------------|
A  :---------|-------------------------------|------------------------------|
F  :---------|-------------------------------|------------------------------|
C  :---------|-------------------------------|------------------------------|
G  :7-7-7-7-7|5-5-5-5-5-5-5-5-5-5-5-5-7-7-7-7|8-8-8-8-8-8-8-8-7-7-7-7-5-5-5-|
C  :---------|-------------------------------|------------------------------|

D  :-|---------------------------------------|------------------------------|
A  :-|---------------------------------------|------------------------------|
F  :-|---------------------------------------|------------------------------|
C  :-|---------------------------------------|------------------------------|
G  :5|8-8-8-8-8-8-8-8-10-10-10-10-10-10-10-10|8-8-8-8-8-8-8-8-7-7-7-7-7-7-7-|
C  :-|---------------------------------------|------------------------------|

D  :-|-------------------------------|-------------------------------|------|
A  :-|-------------------------------|-------------------------------|------|
F  :-|-------------------------------|-------------------------------|------|
C  :-|-------------------------------|-------------------------------|------|
G  :7|5-5-5-5-5-5-5-5-5-5-5-5-7-7-7-7|8-8-8-8-8-8-8-8-7-7-7-7-5-5-5-5|8-8-8-|
C  :-|-------------------------------|-------------------------------|------|

D  :---------------------------------|------------------------|-------------|
A  :---------------------------------|------------------------|-------------|
F  :---------------------------------|------------------------|-------------|
C  :---------------------------------|----------------------0-|----7---10-8-|
G  :8-8-8-8-8-10-10-10-10-10-10-10-10|8-8-8-8-8-8-8-8-8-7-5-0-|-------------|
C  :---------------------------------|----------------------0-|--0---0------|

D  :----|------------------|-------------------|----------------|-----------|
A  :----|------------------|-------------------|----------------|-----------|
F  :----|------------------|-------------------|----------------|-----------|
C  :7---|----7---10-8-7----|-----7----10-8-7---|--8-7---8-7-----|----7---10-|
G  :----|------------------|-------------------|--------------0-|-----------|
C  :--8-|--8---8--------10-|--10---10--------5-|------5-----5-0-|--0---0----|

D  :------|------------------|-------------------|----------------|--------|
A  :------|------------------|-------------------|----------------|--------|
F  :------|------------------|-------------------|----------------|--------|
C  :8-7---|----7---10-8-7----|-----7----10-8-7---|--8-7---8-7-----|----7---|
G  :------|------------------|-------------------|--------------0-|--------|
C  :----8-|--8---8--------10-|--10---10--------5-|------5-----5-0-|--0---0-|

D  :---------|------------------|-------------------|----------------|------|
A  :---------|------------------|-------------------|----------------|------|
F  :---------|------------------|-------------------|----------------|------|
C  :10-8-7---|----7---10-8-7----|-----7----10-8-7---|--8-7---8-7-----|----7-|
G  :---------|------------------|-------------------|--------------0-|------|
C  :-------8-|--8---8--------10-|--10---10--------5-|------5-----5-0-|--0---|

D  :-----------|------------------|-------------------|----------------|----|
A  :-----------|------------------|-------------------|----------------|----|
F  :-----------|------------------|-------------------|----------------|----|
C  :--10-8-7---|----7---10-8-7----|-----7----10-8-7---|--8-7---8-7-----|----|
G  :-----------|------------------|-------------------|----------------|----|
C  :0--------8-|--8---8--------10-|--10---10--------5-|------5-----5---|0-0-|

D  :--------------|------------------|------------------|------------------|
A  :--------------|------------------|------------------|------------------|
F  :--------------|------------------|------------------|------------------|
C  :--------------|------------------|------------------|------------------|
G  :12---10---8---|7---8---7---5-7-5-|----12---10---8---|7---8---7---5-7-5-|
C  :---0----0---0-|--0---0---0-------|0-0----0----0---0-|--0---0---0-------|

D  :------------------|------------------|------------------|--------------|
A  :------------------|------------------|------------------|--------------|
F  :------------------|------------------|------------------|--------------|
C  :------------------|------------------|------------------|--------------|
G  :----12---10---8---|7---8---7---5-7-5-|----12---10---8---|7---8---7---5-|
C  :0-0----0----0---0-|--0---0---0-------|0-0----0----0---0-|--0---0---0---|

D  :----|--------------------|
A  :----|--------------------|
F  :----|--------------------|
C  :----|--------------------|
G  :7-5-|0-0-0-0-0*----------|
C  :----|0-0-0-0-0*----------|
Добавлено: 14.07.2013
Другие материалы по этой песне:

Страница создана 07.03.2012
http://primanota.ru/black-dahlia-murder/elder-misanthropy-chords.htm
Привет, Гость.
Предлагаем пройти революционный курс по гитаре.
Подарок от PrimaNota.Ru, забирай!