PrimaNota.ru - самый крупный в мире бесплатный архив песенных текстов, аккордов, табулатур и нот


Black Dahlia Murder - Carbonized In Cruciform - таба, видео

Регистрация Запомнить меня
Войти через:  Facebook Google Twitter Vk Yandex Mail.ru

Black Dahlia Murder - Carbonized In Cruciform - таба, видео

Печатать
Просмотров: 121
CARBONIZED IN CRUCIFORM
Black Dahlia Murder
Ritual


Transcribed by Seth Sanders [livetolieanotherday@hotmail.com]

Gtr I (C F Bb Eb G C) - 'Rhythm Guitar I'
Gtr II (C F Bb Eb G C) - 'Rhythm Guitar II'
Gtr III (C F Bb Eb G C) - 'Lead Guitar'
Gtr IV (C F Bb Eb G C) - 'Acoustic Guitar'

   Acoustic Intro
    Q=140
    Amadd9                      D5      D5/Bb   Amadd9        Amadd9/Eb
   3/4
    Gtr IV
    E E E E E E   E E E E E E   E E  E  E E E   E E E E E E   E E E E E E
||----------7---|---------7---|-----<5>-------|---------7---|---------7----|
||o-------------|-------------|---------------|-------------|--------------|
||------5-----5-|-----5-----5-|---------2-----|-----5-----5-|-----5-----5--|
||----7---7-----|---7---7-----|---7---------0-|---7---7-----|---7---7------|
||o-0-----------|-6-----------|-5---------1---|-0-----------|-6------------|
||--------------|-------------|---------------|-------------|--------------|


  D       D5/Bb   Amadd9
  E E  E  E E E   E E E E E E   E E E E E E
|-----<5>-------|---------7---|---------7---|
|---------------|-------------|-------------|
|---------2-----|-----5-----5-|-----5-----5-|
|---7---------0-|---7---7-----|---7---7-----|
|-5---------1---|-0-----------|-0-----------|
|---------------|-------------|-------------|


  Am/Eb                       Cmaj7sus4b13/F
  E E E E E E   E E E E E E   E E E E E E
|---------7---|---------7---|-------------|
|-------------|-------------|---------0---|
|-----5-----5-|-----5-----5-|-----1-----1-|
|---7---7-----|---7---7-----|---3---3-----|
|-6-----------|-6-----------|-------------|
|-------------|-------------|-1-----------|


                E             E7    A5G#m/B
  E E E E E E   E E E E E E   E E E S S E E
|-------------|-------------|----------------||
|---------0---|-------------|-----9-------9-o||
|-----1-----1-|---------4---|----------------||
|---3---3-----|-----6-----6-|---6-------9----||
|-------------|---7---7-----|-------0-------o||
|-1-----------|-0-----------|-0-----0-7------||


 Electric Guitar Intro
  A5                           G#5   F5   E5
 4/4
  Gtrs I, II
                                PM
                                |----3----|
  H.                            E    E    E
|---------------------------------------------|
|---------------------------------------------|
|-9-------------------------------------------|
|-7----------------------------------3----2---|
|-x-----------------------------6----3----2---|
|-5-----------------------------4----1----0---|
|
| Gtr III
| PM-----| TPTPTP
| S  S S S S S S S  S  S  S  S  S  S    S   S
|---------------------------------------------|
|----------------5h10-10-10-10-10-10---10---5h|
|----------5-5--------------------------------|
|-7--7-7-7-----7------------------------------|
|---------------------------------------------|
|---------------------------------------------|
 Tremolo pick.

  F5              B/Eb
  H                H
|-----------------------------------|
|-----------------------------------|
|-----------------/8----------------|
|-3---------------/9----------------|
|-3---------------/6----------------|
|-1---------------------------------|
|
| S S S S S S S S  S S S S S S S S
|-----------------------------------|
|-6-6-6-6-6-6-6-3h=5-5-5-5-5-5-5-5--|
|-----------------------------------|
|-----------------------------------|
|-----------------------------------|
|-----------------------------------|


  Gtr I
                                PM
                                |----3----|
  H.                            E    E    E
|---------------------------------------------|
|---------------------------------------------|
|-9-------------------------------------------|
|-7----------------------------------3----2---|
|-x-----------------------------6----3----2---|
|-5-----------------------------4----1----4---|
|
| PM-----| TPTPTP
| S  S S S S S S S  S  S  S  S  S  S    S   S
|---------------------------------------------|
|----------------5h10-10-10-10-10-10---10---5h|
|----------5-5--------------------------------|
|-7--7-7-7-----7------------------------------|
|---------------------------------------------|
|---------------------------------------------|
|
| Gtr II
|                               PM
|                               |----3----|
| H.                            E    E    E
|---------------------------------------------|
|---------------------------------------------|
|-9-------------------------------------------|
|-7----------------------------------3----2---|
|-x-----------------------------6----3----2---|
|-5-----------------------------4----1----4---|


  Q        Q           Q           Q
|----------------------------------------------|
|----------------------------------------------|
|---------/5-----------4-----------------------|
|-2-------/x-----------x-----------6-----------|
|-2-------/3-----------2-----------x-----------|
|-0--------------------------------4-----------|
|
| S S S S  S  S  S  S  S  S  S  S  S  S  S  S
|----------------------------------------------|
|-6-6-6-6S13-13-13-13-12-12-12-12--------------|
|---------------------------------13-13-13-13\-|
|----------------------------------------------|
|----------------------------------------------|
|----------------------------------------------|
|
| Q        Q           Q           Q
|----------------------------------------------|
|----------------------------------------------|
|----------------------------------------------|
|-2-------/7-----------6-----------2-----------|
|-2-------/x-----------x-----------x-----------|
|-0-------/5-----------4-----------0-----------|


  Gtrs I, II
                                PM
                                |----3----|
  H.                            E    E    E
|---------------------------------------------|
|---------------------------------------------|
|-9-------------------------------------------|
|-7----------------------------------3----2---|
|-x-----------------------------6----3----2---|
|-5-----------------------------4----1----0---|
|
| PM-----| TPTPTP
| S  S S S S S S S  S  S  S  S  S  S    S   S
|---------------------------------------------|
|----------------5h10-10-10-10-10-10---10---5h|
|----------5-5--------------------------------|
|-7--7-7-7-----7------------------------------|
|---------------------------------------------|
|---------------------------------------------|


  H                H
|----------------------------------|
|----------------------------------|
|-----------------/8---------------|
|-3---------------/9---------------|
|-3---------------/6---------------|
|-1--------------------------------|
|
| S S S S S S S S  S S S S S S S S
|----------------------------------|
|-6-6-6-6-6-6-6-3h=5-5-5-5-5-5-5-5-|
|----------------------------------|
|----------------------------------|
|----------------------------------|
|----------------------------------|


  Gtr I
  PM--------------------|
  S S S S S S S S S S S S  S  S  S  S
|-------------------------------------|
|-------------------------------------|
|-------------------------------------|
|-------------------------------------|
|--------------------------8--8--8--8-|
|-1-1-1-1-5-5-5-5-4-4-4-4-------------|
|
| PM-----------------------------------
| S S S S S S S S S S S S  S  S  S  S
|-------------------------------------|
|-------------------------------------|
|-----------------5-5-5-5-10-10-10-10-|
|---------7-7-7-7---------------------|
|-8-8-8-8-----------------------------|
|-------------------------------------|
|
| Gtr II
| PM--------------------|
| S S S S S S S S S S S S  S  S  S  S
|-------------------------------------|
|-------------------------------------|
|-------------------------------------|
|-------------------------------------|
|--------------------------8--8--8--8-|
|-1-1-1-1-5-5-5-5-4-4-4-4-------------|


                                    PM------|
  S S S S   S  S  S  S  S  S  S  S  S  S  S  S
|-----------------------------------------------||
|-----------------------------------------------||
|-----------------------------------------------||
|-----------------------------------------------||
|-7-7-7-7---------------------------------------||
|-----------8--8--8--8--7--7--7--7--4--4--4--4--||
|
|-------|
| S S S S   S  S  S  S  S  S  S  S  S  S  S  S
|-----------------------------------------------||
|---------/13-13-13-13-12-12-12-12--------------||
|-9-9-9-9--------------------------13-13-13-13\-||
|-----------------------------------------------||
|-----------------------------------------------||
|-----------------------------------------------||
|
| PM----|                           PM------|
| S S S S   S  S  S  S  S  S  S  S  S  S  S  S
|-----------------------------------------------||
|-----------------------------------------------||
|-----------------------------------------------||
|-----------------------------------------------||
|-----------7--7--7--7--5--5--5--5--------------||
|-4-4-4-4---------------------------7--7--7--7--||


 Pre-Verse
  $$
  Gtrs I, II
  PM-------------------------------------------------|
  S S S S S S S S  S  S  S  S  S  S  S S   S S S S S S S S S S S S S S S S
|----------------------------------------|---------------------------------|
|----------------------------------------|---------------------------------|
|----------------------------------------|---------------------------------|
|----------------------------------------|---------------------------------|
|----------------------------------------|-------------8-8-7-7-7-7-7-7-7-7-|
|-5-5-5-5-5-5-5-5--5--5--5--5--8--8--8-8-|-5-5-5-5-5-5---------------------|
|
| Gtr III
| PM----| TPTPTP
| S S S S S S S S  S  S  S  S  S  S  S S   S S S S S S S S S S S S S S S S
|----------------------------------------|---------------------------------|
|---------------5h10-10-10-10-10-10-10-5h|=6-6-6-6-6-6-6-3h5-5-5-5-5-5-5-5-|
|---------5-5----------------------------|---------------------------------|
|-7-7-7-7-----7--------------------------|---------------------------------|
|----------------------------------------|---------------------------------|
|----------------------------------------|---------------------------------|


  PM-----------------------|
  S S S S S S S S  S  S  S  S  S  S  S S
|----------------------------------------|
|----------------------------------------|
|----------------------------------------|
|----------------------------------------|
|------------------------------8--8--8-8-|
|-5-5-5-5-8-8-8-8--5--5--5--5------------|
|
| PM----| TPTPTP
| S S S S S S S S  S  S  S  S  S  S  S S
|----------------------------------------|
|---------------5h10-10-10-10-10-10-10-5h|
|---------5-5----------------------------|
|-7-7-7-7-----7--------------------------|
|----------------------------------------|
|----------------------------------------|


                                   PM------|
  S S S S  S  S  S  S  S  S  S  S  S  S  S  S
|----------------------------------------------|
|----------------------------------------------|
|----------------------------------------------|
|----------------------------------------------|
|-7-7-7-7--5--5--5--5--------------------------|
|----------------------8--8--8--8--7--7--7--7--|
|
| S S S S  S  S  S  S  S  S  S  S  S  S  S  S
|----------------------------------------------|
|-6-6-6-6S13-13-13-13-12-12-12-12--------------|
|---------------------------------13-13-13-13\-|
|----------------------------------------------|
|----------------------------------------------|
|----------------------------------------------|


                                                             To Dbl. Coda
  PM-------------------------------------------------|
  S S S S S S S S  S  S  S  S  S  S  S S   S S S S S S S S S S S S S S S S
|----------------------------------------|---------------------------------|
|----------------------------------------|---------------------------------|
|----------------------------------------|---------------------------------|
|----------------------------------------|---------------------------------|
|----------------------------------------|-------------8-8-7-7-7-7-7-7-7-7-|
|-5-5-5-5-5-5-5-5--5--5--5--5--8--8--8-8-|-5-5-5-5-5-5---------------------|
|
| PM----| TPTPTP
| S S S S S S S S  S  S  S  S  S  S  S S   S S S S S S S S S S S S S S S S
|----------------------------------------|---------------------------------|
|---------------5h10-10-10-10-10-10-10-5h|=6-6-6-6-6-6-6-3h5-5-5-5-5-5-5-5-|
|---------5-5----------------------------|---------------------------------|
|-7-7-7-7-----7--------------------------|---------------------------------|
|----------------------------------------|---------------------------------|
|----------------------------------------|---------------------------------|


  PM-----------------------------------------------------|
                                                     |3| |3-|
  S S S S S S S S S S S S  S  S  S  S   S S S S S S  E q E  Q +E
|-------------------------------------|---------------------------||
|-------------------------------------|---------------------------||
|-------------------------------------|---------------------------||
|-------------------------------------|---------------------------||
|--------------------------8--8--8--8-|-7-7-7-7-7-7-10-9-7-\7-(7)-||
|-1-1-1-1-5-5-5-5-4-4-4-4-------------|--------------8-7-5-\4-(4)-||
|
| PM-----------------------------------------------------|
|                                                    |3| |3-|
| S S S S S S S S S S S S  S  S  S  S   S S S S S S  E q E  Q +E
|-------------------------------------|---------------------------||
|-------------------------------------|---------------------------||
|-----------------5-5-5-5-10-10-10-10-|-9-9-9-9-9-9---------------||
|---------7-7-7-7---------------------|---------------------------||
|-8-8-8-8-----------------------------|-------------10-9-7-\7-(7)-||
|-------------------------------------|--------------8-7-5-\4-(4)-||


   Verse I + II
    $
    Gtrs I, II
    PM----|     PM------------------------|     PM     PM    PM
    |3| |3| |-3-| |------6------|   |3| |3| |-3-|  |-3-| |-3-|
    E S S E E E E E S S E E S S E   E S S E E E E  E E E E E E
||--------------------------------|----------------------------|
||o-------------------------------|----------------------------|
||--------------------------------|----------------------------|
||----------7---------------------|---------7-----10-----9-----|
||o-----------7-------------------|-----------7------7-----7---|
||--8-7-7-5-----5-5-5-5-5-5-5-5-5-|-8-7-7-5-----5------5-----4-|


  PM----|     PM-----------------
  |3| |3| |-3-| |------6------|
  E S S E E E E E S S E E S S E
|-------------------------------|
|---------6---------------------|
|-----------5-------------------|
|-7-5-5-3-----3-3-3-3-3-3-3-3-3-|
|-------------------------------|
|-------------------------------|
|
| Gtr II
| PM----|     PM-----------------
| |3| |3| |-3-| |------6------|
| E S S E E E E E S S E E S S E
|-------------------------------|
|-------------------------------|
|-------------------------------|
|---------3---------------------|
|-----------3-------------------|
|-5-3-3-1-----1-1-1-1-1-1-1-1-1-|


  1.                          2.
 -|   PM  PM                    PM  PM  PM  PM  ~
  |----6----| |----6----|     |----6----| |-3-|
  E E E E E E E E E E E E     E E E E E E E E E Q
|--------------------------||-----------------------||
|-------------------------o||-----------------------||
|---5---5---5--------------||-----------------------||
|-2---2---2---2h6p2h6p2h6--||-----------------------||
|-------------------------o||-7-5-7---7---7---7-----||
|--------------------------||-------8---7---5---4---||
|
|-|   PM  PM                    PM  PM  PM  PM  ~
| |----6----| |----6----|     |----6----| |-3-|
| E E E E E E E E E E E E     E E E E E E E E E Q
|--------------------------||-----------------------||
|-------------------------o||-5-3-5---5---5---5-----||
|--------------------------||-------5---4---2-------||
|---7---7---7--------------||-------------------2---||
|-3---3---3---3h7p3h7p3h7-o||-----------------------||
|--------------------------||-----------------------||
                             Second ending.

   Pre-Chorus
    Gtrs I, II
    PM--------------------|          PM----|   PM  PM------------|
    |------6------| |-----3-----|    |-----6-----| |------6------|
    E S S E E S S E E S S E E E E    E S S E E E E E S S E E S S E
||---------------------------------|-------------------------------|
||o--------------------------------|-------------------------------|
||---------------------------------|-------------------------------|
||---------------------------------|-------------------------------|
||o--------------------------------|---------3---2-----------------|
||--5-5-5-5-8-8-8-8-5-5-5-5-8p5h8\-|-1-1-1-1---1---4-4-4-4-4-4-4-4-|


  1.
  Gtr I
  PM--------------------|
  |------6------| |-----3-----|    |-3-| |-3--| |--3--| |-3--|
  E S S E E S S E E S S E E E E    E E E E E  E E  E  E E E  E
|--------------------------------|------------------------------||
|--------------------------------|-----------------------------o||
|--------------------------------|------------------------------||
|--------------------------------|------------------------------||
|--------------------------------|-----------------------------o||
|-5-5-5-5-8-8-8-8-5-5-5-5-8p5h8\-|-0h1h4-0h4h=7-0h=7h10-0h4h=7--||
|
| Gtr II
| PM--------------------|
| |------6------| |-----3-----|    |-3-| |-3--| |--3--| |-3--|
| E S S E E S S E E S S E E E E    E E E E E  E E  E  E E E  E
|--------------------------------|------------------------------||
|--------------------------------|-----------------------------o||
|--------------------------------|------------------------------||
|--------------------------------|------------------------------||
|--------------------------------|-----------------------------o||
|-5-5-5-5-8-8-8-8-5-5-5-5-8p5h8\-|-0h4-7-0h7h10-0h10h13-0h7h10--||


  2.
                         To Coda                 D.S. al Coda
                                     A5      A5      A5   A5/E
  Gtr I
  |------------12:8--------------|
  E E E  E E  E  E  E  E   E  E  E   E   E   E   E    E E Q
|----------------------------------|--------------------------||
|----------------------------------|--------------------------||
|----------------------------------|--------------------------||
|----------------------------------|----------------------7\--||
|----------------------------------|-7-------7--------7---7\--||
|-4p1h4--7p4h=7-10p=7h10-/13p10h13-|-5-------5--------5-------||
|
| Gtr II
| |------------12:8--------------|
| E E E  E E  E  E  E  E   E  E  E   E   E   E   E    E E Q
|----------------------------------|--------------------------||
|----------------------------------|--------------------------||
|----------------------------------|--------------------------||
|----------------------------------|----------------------7\--||
|----------------------------------|-7-------7--------7---7\--||
|-7p4h7-10p7h10-13p10h13-/16p13h16-|-5-------5--------5-------||
|
| Gtr III
|                                      PM             ~~
|                                    |------6------|
| W                                  E E   E E E   E  H
|----------------------------------|--------------------------||
|----------------------------------|-----------------10-------||
|----------------------------------|-----------5S==9----------||
|----------------------------------|-2-----2S7----------------||
|----------------------------------|---3----------------------||
|----------------------------------|--------------------------||


  &
   |-------------12:8---------------|
   E E  E  E  E  E   E  E  E  E  E  E
|-------------------------------------||
|-------------------------------------||
|-------------------------------------||
|-------------------------------------||
|-------------------------------------||
|--7p4h=7-10p=7h10-/13p10h13-16p13h16-||
|
|  |-------------12:8---------------|
|  E E  E  E  E  E   E  E  E  E  E  E
|-------------------------------------||
|-------------------------------------||
|-------------------------------------||
|-------------------------------------||
|----------------------------15p12h15-||
|-10p7h10-13p10h13-/16p13h16----------||


 Chorus
  A5                                         G#5
  Gtr III
          PM----|                                    PM----|
  S S S S S S S S   S  S  S  S  S  S  S  S   S S S S S S S S S S S S S S S S
|------------------------------------------|---------------------------------|
|-5-5-5-5---------/13-13-13-13-12-12-12p10-|-----------------9-9-9-9-8-8-8p7-|
|------------------------------------------|-8-8-8-8-------------------------|
|---------7-7-7-7--------------------------|---------6-6-6-6-----------------|
|------------------------------------------|---------------------------------|
|------------------------------------------|---------------------------------|
|
| Gtrs I, II
| W                                          W
|-5----------------------------------------|-4-------------------------------|
|-5----------------------------------------|-4-------------------------------|
|-2----------------------------------------|-1-------------------------------|
|-x----------------------------------------|---------------------------------|
|-0----------------------------------------|---------------------------------|
|------------------------------------------|---------------------------------|


  A5
          PM----|
  S S S S S S S S   S  S  S  S  S  S  S  S
|------------------------------------------|
|-5-5-5-5---------/13-13-13-13-12-12-12p10-|
|------------------------------------------|
|---------7-7-7-7--------------------------|
|------------------------------------------|
|------------------------------------------|
|
| W
|-5----------------------------------------|
|-5----------------------------------------|
|-2----------------------------------------|
|-x----------------------------------------|
|-0----------------------------------------|
|------------------------------------------|


  Eb+/B
                  PM---------------|
  S S S S S S S S S S S S  S  S  S  S
|-------------------------------------|
|-8-8-8-8-----------------------------|
|---------9-9-9-9---------------------|
|-----------------9-9-9-9-------------|
|-------------------------11-11-11-11-|
|-------------------------------------|
|
| W
|-------------------------------------|
|-0-----------------------------------|
|-0-----------------------------------|
|-1-----------------------------------|
|-2-----------------------------------|
|-------------------------------------|


  A5                                         G#5
          PM----|                                    PM----|
  S S S S S S S S   S  S  S  S  S  S  S  S   S S S S S S S S S S S S S S S S
|------------------------------------------|---------------------------------|
|-5-5-5-5---------/13-13-13-13-12-12-12p10-|-----------------9-9-9-9-8-8-8p7-|
|------------------------------------------|-8-8-8-8-------------------------|
|---------7-7-7-7--------------------------|---------6-6-6-6-----------------|
|------------------------------------------|---------------------------------|
|------------------------------------------|---------------------------------|
|
| W                                          W
|-5----------------------------------------|-4-------------------------------|
|-5----------------------------------------|-4-------------------------------|
|-2----------------------------------------|-1-------------------------------|
|-x----------------------------------------|---------------------------------|
|-0----------------------------------------|---------------------------------|
|------------------------------------------|---------------------------------|


                                               D.S.S. al Dbl. Coda
  C5/G                              B5/F#           G#5
                  PM----|                   PM----|
  S S S S S S S S S S S S S S S S   S S S S S S S S S S S S S S S S
|---------------------------------|---------------------------------||
|---------------------------------|---------------------------------||
|-8-8-8-8-5-5-5-5-0-0-0-0-8-8-8-8-|-7-7-7-7-4-4-4-4-7-7-7-7-5-5-5-5-||
|---------------------------------|---------------------------------||
|---------------------------------|---------------------------------||
|---------------------------------|---------------------------------||
|
| W                                 H               H
|-8-------------------------------|-7---------------4---------------||
|-8-------------------------------|-7---------------4---------------||
|-5-------------------------------|-4---------------x---------------||
|-5-------------------------------|-4---------------6---------------||
|---------------------------------|---------------------------------||
|---------------------------------|---------------------------------||


                                             Interlude
  &&
  F5                       F5   E5   G#5      A5
  Gtrs I, II                                  Gtr I
                                                            PM|
                                                         |-3--|
  H.                       Q    H     H       H    +Q   +E  E E
|-----------------------------|-------4----||-------------------|
|--------------------------6--|-5-----x----||-------------------|
|--------------------------x--|-x-----1----||-2----(2)--(2)-----|
|-3------------------------3--|-2----------||-2----(2)--(2)-2-2-|
|-3---------------------------|------------||-0----(0)--(0)-0-0-|
|-1---------------------------|------------||-------------------|
|
| Gtr III                                     Gtr II
| PM---------------------|            ~~                    PM|
|                                                        |-3--|
| S  S S S S S S S S S S S Q    H     H       H    +Q   +E  E E
|-----------------------------|------------||-------------------|
|-----------------------------|------------||-------------------|
|------------------5-5-5-5----|------------||-2----(2)--(2)-----|
|----------7-7-7-7---------3--|-2----------||-2----(2)--(2)-2-2-|
|-8--8-8-8-----------------3--|-2----/6----||-0----(0)--(0)-0-0-|
|--------------------------1--|-0----/4----||-------------------|


  Gtrs I, II
  PM        PM                  PM----|         PM                  PM|
                             |-3--|                              |-3--|
  E E Q  Q  E E   H    +Q   +E  E E   E E Q  Q  E E   H    +Q   +E  E E
|---------------|-------------------|---------------|-------------------|
|---------------|-------------------|---------------|-------------------|
|---------------|-------------------|---------------|-2----(2)--(2)-----|
|-2---------2---|-6----(6)--(6)-----|---------------|-2----(2)--(2)-2-2-|
|-0---------0---|-6----(6)--(6)-6-6-|-6---------6---|-0----(0)--(0)-0-0-|
|---------------|-4----(4)--(4)-4-4-|-4---------4---|-------------------|


  PM        PM                   ~
  E E Q  Q  E E   H.      +Q     W
|---------------|--------------|------||
|---------------|--------------|------||
|---------------|--------------|------||
|-2---------2---|--------------|------||
|-0---------0---|-3-------(3)s=|=6----||
|---------------|-1-------(1)s=|=4----||


   Bridge
        PM                  PM                  PM                  PM
    S S S S S S S S S S S S S S S S         S S S S S S S S S S S S S S S S
||-----------------------------------||-||-----------------------------------||
||o---------------------------------o||-||o---------------------------------o||
||-----------------------------------||-||-----------------------------------||
||------------3h5p3------------------||-||------------2h6p2------------------||
||o-7p3-0-3h7-------7h8p7p3-0-3h7p3-o||-||o-6p2---2h6-------6p2h6p2---2h6p2-o||
||-----------------------------------||-||------4-------------------4--------||


    Gtr I
        PM                  PM
    S S S S S S S S S S S S S S S S
||-----------------------------------||-|
||o---------------------------------o||-|
||-----------------------------------||-|
||------------3h5p3------------------||-|
||o-7p3-0-3h7-------7h8p7p3-0-3h7p3-o||-|
||-----------------------------------||-|
|
|   Gtr II
|       PM                  PM
|   S S S S S S S S S S S S S S S S
||-----------------------------------||-|
||o---------------------------------o||-|
||-----------------------------------||-|
||------------3h5p3------------------||-|
||o-7p3-0-3h7-------7h8p7p3-0-3h7p3-o||-|
||-----------------------------------||-|


        PM            PM               PM
    S S S S S S S  S  S  S S  S  S  S  S  S
||--------------------------------------------||
||o------------------------------------------o||
||------------------------------10------------||
||--3-------3s6h9----------9s12----12----12\--||
||o---5---5-------11----11------------14-----o||
||------7------------13-----------------------||
|
|       PM            PM               PM
|   S S S S S S S  S  S  S S  S  S  S  S  S
||--------------------------------------------||
||o------------------------------------------o||
||-------------------------------7------------||
||----------0h3h6----------6S=9-----9-----9\--||
||o-5-2---2--------8-----8------------11-----o||
||------4------------10-----------------------||


    Gtrs I, II
        PM                  PM                  PM                  PM
    S S S S S S S S S S S S S S S S         S S S S S S S S S S S S S S S S
||-----------------------------------||-||-----------------------------------||
||o---------------------------------o||-||o---------------------------------o||
||-----------------------------------||-||-----------------------------------||
||------------3h5p3------------------||-||------------2h6p2------------------||
||o-7p3-0-3h7-------7h8p7p3-0-3h7p3-o||-||o-6p2---2h6-------6p2h6p2---2h6p2-o||
||-----------------------------------||-||------4-------------------4--------||


    Gtr I
        PM                  PM              PM            PM               PM
    S S S S S S S S S S S S S S S S     S S S S S S S  S  S  S S  S  S  S  S  S
||-----------------------------------||------------------------------------------|
||o---------------------------------o||------------------------------------------|
||-----------------------------------||-----------------------------10-----------|
||------------3h5p3------------------||-3-------3s6h9----------9s12----12----12\-|
||o-7p3-0-3h7-------7h8p7p3-0-3h7p3-o||---5---5-------11----11------------14-----|
||-----------------------------------||-----7------------13----------------------|
|
|   Gtr II
|       PM                  PM              PM            PM               PM
|   S S S S S S S S S S S S S S S S     S S S S S S S  S  S  S S  S  S  S  S  S
||-----------------------------------||------------------------------------------|
||o---------------------------------o||------------------------------------------|
||-----------------------------------||------------------------------7-----------|
||------------3h5p3------------------||---------0h3h6----------6S=9-----9-----9\-|
||o-7p3-0-3h7-------7h8p7p3-0-3h7p3-o||-5-2---2--------8-----8------------11-----|
||-----------------------------------||-----4------------10----------------------|


      PM            PM
  S S S S S S S  S  S  S S  S   S  S  S  S
|-----------------------------/13p10-------|
|------------------------------------12----|
|---------------------------------------10-|
|-3-------3s6h9----------9s12--------------|
|---5---5-------11----11-------------------|
|-----7------------13----------------------|
|
|     PM            PM
| S S S S S S S  S  S  S S  S   S  S  S  S
|-----------------------------/10p=7-------|
|-------------------------------------9----|
|----------------------------------------7-|
|---------0h3h6----------6S=9--------------|
|-5-2---2--------8-----8-------------------|
|-----4------------10----------------------|


 Guitar Solo
  Am
  Gtrs I, II
    PM----|        PM----|   PM|         PM--------------------------|
  E S S S S  E     S S S S E S S    E    S  S  S  S  S    S   E  E E E
|--------------------------------|-------------------------------------|
|------------1-------------------|-------------------------------------|
|-2----------2-------------2-----|--2----------------------------------|
|-2----------2-------------2-----|--2------------------------------2---|
|-0-0-0-0-0--0-----0-0-0-0-0-0-0-|--0----0--0--0--0--0----0---0--0-0-0-|
|--------------------------------|-------------------------------------|
|
| Gtr III
| PM|              ~~                                         ~~~~
| E E   E   +S  S  H                E.      S  S  S  E       +H
|--------------------------------|-------------------------------------|
|-----------------10-------------|-12b14r==12-10s12-15b17---(15)-------|
|-------5---(5)s9----------------|-------------------------------------|
|---6---x------------------------|-------------------------------------|
|-7-x---3---(3)s7----------------|-------------------------------------|
|-0-4----------------------------|-------------------------------------|
Do the higher harmony if you don't have an octaver.

  E5                                                 F5          E5         E
             PM-------------|              PM---|                            PM--|
    E        S    S    S    S     E        S    S     E          E           S    S
|----------------------------------------------------------------------------------------|
|----------------------------------------------------------------------------------------|
|-----------------------------------------------------5----------4-----------------------|
|---2-----------------------------2-------------------x----------x-----------------------|
|---2-----------------------------2-------------------3----------2-----------------------|
|---0--------0----0----0----0-----0--------0----0-----1----------0-----------0----0------|
|
|                    T         T                         T          T             T
|   |--3--|  |--------5--------|  |-------6--------|  |---------7---------|
|   S  S  S  S  S    S    S    S  S  S  S  S  S    S  S  S  S  S    S  S  S  T T  T  T
|-----------16h19h==24p==16h==24p16h19---------------19h21p19p16-------------------------|
|--------18----------------------------17p16h17h==21---------------17p12p11-12p0---------|
|-----19-------------------------------------------------------------------------16p13---|
|-/21------------------------------------------------------------------------------------|
|----------------------------------------------------------------------------------------|
|----------------------------------------------------------------------------------------|


  E5
          PM---------------------|       PM
   E      S  S  S  S  S  S  E    E     E E
|---------------------------------------------|
|---------------------------------------------|
|---------------------------------------------|
|--2------------------------------------------|
|--2-----------------------------------2------|
|--0------0--0--0--0--0--0--0----0-----0-0----|
|
|                                      ~~
|  S  S   S  S  S  S  S  S  E.      S  Q    a
|-------/20-------19-------16b17r===x------!x-|
|-12s13----------------------------18p17---!x-|
|-----------17S16----16S13-----------------!x-|
|------------------------------------------!x-|
|------------------------------------------!x-|
|---------------------------------------------|


  A5      C5   A5        C5   Am
  H
  |
  /

      PM|           PM|              PM|
  E   S S E    E    S  S E     E     S  S
|------------------------------------------|
|------------------------------1-----------|
|-2----------------------------2-----------|
|-2-------5----2---------5-----2-----------|
|-0---0-0-3----0----0--0-3-----0-----0--0--|
|------------------------------------------|
|
| PM-------------|
| S S S S S  S S  S S  S S  S  S  S  S  S
|------------------------------------------|
|-----------------------------10h13p10h13--|
|-------------------9h10p9h10--------------|
|---------7-10-7-10------------------------|
|-7-8-7-8-0--0-0--0------------------------|
|-0-0-0-0----------------------------------|
Heavily palm muted.

  Am
            PM--------------------------|               PM
    E       S    S     S  S  S  S  E     E     E        E
|---------------------------------------------------------------|
|---1-----------------------------------------------------------|
|---2-----------------------------------------------------------|
|---2------------------------------------------2----------------|
|---0-------0----0-----0--0--0--0--0-----0-----0--------0-------|
|---------------------------------------------------------------|
|
|                      PM                                     PM
|   |-------5-------|                          |------6-------|
|   S  S  S    S    S  S  S  S  S  S  S  S  S  S  S  S  S  S  S
|------------------------19p17p16-------------------------------|
|-/16h17p16h==17p==16-------------17p15p13----------------------|
|---------------------16-------------------16-------16S17S16----|
|---------------------------------------------17p14--x--x--x-14-|
|---------------------------------------------------14S15S14----|
|---------------------------------------------------------------|
                                                    Legato.

  Dm/F                                  E5        F5    E5           F5E5
        PM------|       PM----|   PM|         PM|               PM-|     PM|
   E    S  S  S  S  E   S S S S E S S    E    S S  E     E      S  S E E S S
|-------------------------------------|----------------------------------------|
|-------------------------------------|----------------------------------------|
|--7----------------7-----------7-----|----------------------------------------|
|--0----------------0-----------0-----|--2---------------2---------------------|
|--8----5--5--5--5--8---5-5-5-5-8-5-5-|--2---------3-----2-----------3-2-------|
|-------------------------------------|--0----0-0--1-----0------0--0-1-0-0-0---|
|
|                       ~~~~~~~~~~~~~~~~~~~~~~                  ~~~~
|  E    S  S  S  S  E   H                Q         S  S  E     +H
|-----/20-------19-----17-------------|-17b19-----17p14h16b17-(16)-------------|
|-------------------------------------|----------------------------------------|
|-14/-----17s16----16\----------------|----------------------------------------|
|-------------------------------------|----------------------------------------|
|-------------------------------------|----------------------------------------|
|-------------------------------------|----------------------------------------|


  Am
         PM|                    PM|               PM|
  E      S S E        E         S  S  E     E     S  S
|------------------------------------------------------|
|-1-------------------1---------------------1----------|
|-2-------------------2---------------------2----------|
|-2----------2--------2---------------2-----2----------|
|-0------0-0-0--------0---------0--0--0-----0-----0--0-|
|------------------------------------------------------|
|
| |-3--|         |---3---|
| S  S S S S S   S  S    S  S   S  S  S  S  S  S  S  S
|------------------------------------------20----------|
|-8h10p8---7h8-/10h11h==12p10-----15h16s17----17s16p15-|
|--------9--------------------/17-----x--------x-------|
|------------------------------------13s14----14s13----|
|------------------------------------------------------|
|------------------------------------------------------|
                                     Higher harmony if no octaver.

  A5
         PM--------------------------|       PM
   E     S  S  S  S  S    S     E    E     E E
|----------------------------------------------|
|----------------------------------------------|
|--2-------------------------------------------|
|--2---------------------------------------2---|
|--0-----0--0--0--0--0----0-----0----0-----0-0-|
|----------------------------------------------|
|
|                                          ~~
|                    |---3---|
|  S  S  S  S  S  S  S  S    S  E.      S  Q
|-------20-------22----16h==19S24b25r==21h24---|
|-16S17----17s20----20-------------------------|
|--x--x-----x----------------------------------|
|-13S14----14s17-------------------------------|
|----------------------------------------------|
|----------------------------------------------|
                     

  C#5
         PM|              PM-|                PM-|
    E    S  S E    E      S    S  E     E     S  S
|--------------------------------------------------|
|--------------------------------------------------|
|---6--------------6--------------------6----------|
|---6---------6----6--------------6-----6----------|
|---4----4--4-4----4------4----4--4-----4-----4--4-|
|--------------------------------------------------|
|
|   S  S S  S S  S S  S   S    S  S  S  S  S  E
|-------------9------<9>-----/16p13----------------|
|--------9h12---12p9-----12/--------14p12----------|
|-----10----------------------------------16p13\---|
|-/11----------------------------------------------|
|--------------------------------------------------|
|--------------------------------------------------|


        PM-----------------|   PM
   E    S S  S  S S  S   E E E E
|--------------------------------|
|--------------------------------|
|--6-------------------------6---|
|--6-------------------------6---|
|--4----4-4--4--4-4--4---4-4-4-4-|
|--------------------------------|
|
|  S S  S S  S  S E      H
|-/7-----------------------------|
|----9----9------------/14-------|
|------10---10-----------x-------|
|--------------11p9\---/11-------|
|--------------------------------|
|--------------------------------|


  Am
        PM-|              PM|              PM|
  E     S  S  E     E     S S  E     E     S S
|----------------------------------------------|
|----------------------------------------------|
|-5-----------------5----------------5---------|
|-7-----------------7----------------7---------|
|-7-----------7-----7----------7-----7---------|
|-5-----5--5--5-----5-----5-5--5-----5-----5-5-|
|
| ~~~~              T                T
| E     S  S  S  S  S  S  S S  S  S  S  S  S S
|-------8p=5h11s12-20p12s11p8-11s12-20p12s11p8-|
|-9b10-(9)-------------------------------------|
|----------------------------------------------|
|----------------------------------------------|
|----------------------------------------------|
|----------------------------------------------|
   Taps and Legato slides.

         PM---------------------|      PM
   E     S  S  S  S  S  S  E    E    E E
|----------------------------------------|
|----------------------------------------|
|----------------------------------------|
|--7-------------------------------------|
|--7---------------------------------7---|
|--5-----5--5--5--5--5--5--5----5----5-5-|
|
|        T        T        T       T ~
|  S  S  S  S  S  S  S  S  S  S S  S Q
|-11s12-20p12s11-19p11s10-17p10S8-15p5---|
|----------------------------------------|
|----------------------------------------|
|----------------------------------------|
|----------------------------------------|
|----------------------------------------|


  C
               PM---------------|                  PM---------------|                  PM---|
   E           S     S     S     S     E           S     S     S     S     E           S     S
|------------------------------------------------------------------------------------------------|
|--6-----------------------------------6-----------------------------------6---------------------|
|--4-----------------------------------4-----------------------------------4---------------------|
|--3-----------3-----3-----3-----3-----3-----------3-----3-----3-----3-----3-----------3-----3---|
|------------------------------------------------------------------------------------------------|
|------------------------------------------------------------------------------------------------|
|
|  T  T  T  T  T  T  T  T  T  T  T  T  T  T  T  T  T  T  T  T  T  T  T  T  T  T  T  T  T  T  T  T
|-------------------------------------------------------------------------18h19h20h21p20p19p18p16|
|-------------------------------------------------------------19h20h21h22------------------------|
|-------------------------------------18h19h20h21-19h20h21h22------------------------------------|
|-------------------------17h18h19h20------------------------------------------------------------|
|-------------16h17h18h19------------------------------------------------------------------------|
|-15h16h17h18------------------------------------------------------------------------------------|


            C         E5        E/Ab
          PM      PM|       PM
   Q.     E  E    S S  E    E   W
|-----------------------------|-------------------||
|-----------------------------|-------------------||
|-----------------------------|-4-----------------||
|--7---------7---------9------|-6-----------------||
|--5---------6---------7------|-7-----------------||
|---------0-------0-0-------0-|-4-----------------||
|
|            ~~~~~~~~~~~~~~~                 ~~
|                               |----6----|
|  H         Q         Q        E E E E E E  H
|-17--------19--------20------|-----------7s10----||
|-20b22-----22b24-----23b25---|-------6h9---------||
|-----------------------------|-----7-----4s=7----||
|-----------------------------|-6h9---3S6---------||
|-----------------------------|-----5-------------||
|-----------------------------|-4S7---------------||


   Chorus
    A5
    Gtr III
            PM----|
    S S S S S S S S   S  S  S  S  S  S  S  S
||-------------------------------------------|
||o-5-5-5-5---------/13-13-13-13-12-12-12p10-|
||-------------------------------------------|
||----------7-7-7-7--------------------------|
||o------------------------------------------|
||-------------------------------------------|
|
|   Gtrs I, II
|   W
||--5----------------------------------------|
||o-5----------------------------------------|
||--2----------------------------------------|
||--x----------------------------------------|
||o-0----------------------------------------|
||-------------------------------------------|


  G#5
          PM----|
  S S S S S S S S S S S S S S S S
|----------------------------------|
|-----------------9-9-9-9-8-8-8p7--|
|-8-8-8-8--------------------------|
|---------6-6-6-6------------------|
|----------------------------------|
|----------------------------------|
|
| W
|-4--------------------------------|
|-4--------------------------------|
|-1--------------------------------|
|----------------------------------|
|----------------------------------|
|----------------------------------|


  A5
          PM----|
  S S S S S S S S   S  S  S  S  S  S  S  S
|------------------------------------------|
|-5-5-5-5---------/13-13-13-13-12-12-12p10-|
|------------------------------------------|
|---------7-7-7-7--------------------------|
|------------------------------------------|
|------------------------------------------|
|
| W
|-5----------------------------------------|
|-5----------------------------------------|
|-2----------------------------------------|
|-x----------------------------------------|
|-0----------------------------------------|
|------------------------------------------|


  Eb+/B
                  PM---------------|
  S S S S S S S S S S S S  S  S  S  S
|-------------------------------------|
|-8-8-8-8-----------------------------|
|---------9-9-9-9---------------------|
|-----------------9-9-9-9-------------|
|-------------------------11-11-11-11-|
|-------------------------------------|
|
| W
|-------------------------------------|
|-0-----------------------------------|
|-0-----------------------------------|
|-1-----------------------------------|
|-2-----------------------------------|
|-------------------------------------|


  A5                                         G#5
          PM----|                                    PM----|
  S S S S S S S S   S  S  S  S  S  S  S  S   S S S S S S S S S S S S S S S S
|------------------------------------------|---------------------------------|
|-5-5-5-5---------/13-13-13-13-12-12-12p10-|-----------------9-9-9-9-8-8-8p7-|
|------------------------------------------|-8-8-8-8-------------------------|
|---------7-7-7-7--------------------------|---------6-6-6-6-----------------|
|------------------------------------------|---------------------------------|
|------------------------------------------|---------------------------------|
|
| W                                          W
|-5----------------------------------------|-4-------------------------------|
|-5----------------------------------------|-4-------------------------------|
|-2----------------------------------------|-1-------------------------------|
|-x----------------------------------------|---------------------------------|
|-0----------------------------------------|---------------------------------|
|------------------------------------------|---------------------------------|


  C5/G                              B5/F#           G#5
                  PM----|                   PM----|
  S S S S S S S S S S S S S S S S   S S S S S S S S S S S S S S S S
|---------------------------------|----------------------------------||
|---------------------------------|---------------------------------o||
|-8-8-8-8-5-5-5-5-0-0-0-0-8-8-8-8-|-7-7-7-7-4-4-4-4-7-7-7-7-5-5-5-5--||
|---------------------------------|----------------------------------||
|---------------------------------|---------------------------------o||
|---------------------------------|----------------------------------||
|
| W                                 H               H
|-8-------------------------------|-7---------------4----------------||
|-8-------------------------------|-7---------------4---------------o||
|-5-------------------------------|-4---------------x----------------||
|-5-------------------------------|-4---------------6----------------||
|---------------------------------|---------------------------------o||
|---------------------------------|----------------------------------||


 Outro
  Gtrs I, II
  PM-------------------------------------------------|
  S S S S S S S S  S  S  S  S  S  S  S S   S S S S S S S S S S S S S S S S
|----------------------------------------|---------------------------------|
|----------------------------------------|---------------------------------|
|----------------------------------------|---------------------------------|
|----------------------------------------|---------------------------------|
|----------------------------------------|-------------8-8-7-7-7-7-7-7-7-7-|
|-5-5-5-5-5-5-5-5--5--5--5--5--8--8--8-8-|-5-5-5-5-5-5---------------------|
|
| Gtr III
| PM----| TPTPTP
| S S S S S S S S  S  S  S  S  S  S  S S   S S S S S S S S S S S S S S S S
|----------------------------------------|---------------------------------|
|---------------5h10-10-10-10-10-10-10-5h|=6-6-6-6-6-6-6-3h5-5-5-5-5-5-5-5-|
|---------5-5----------------------------|---------------------------------|
|-7-7-7-7-----7--------------------------|---------------------------------|
|----------------------------------------|---------------------------------|
|----------------------------------------|---------------------------------|


  PM-----------------------|
  S S S S S S S S  S  S  S  S  S  S  S S
|----------------------------------------|
|----------------------------------------|
|----------------------------------------|
|----------------------------------------|
|------------------------------8--8--8-8-|
|-5-5-5-5-8-8-8-8--5--5--5--5------------|
|
| PM----| TPTPTP
| S S S S S S S S  S  S  S  S  S  S  S S
|----------------------------------------|
|---------------5h10-10-10-10-10-10-10-5h|
|---------5-5----------------------------|
|-7-7-7-7-----7--------------------------|
|----------------------------------------|
|----------------------------------------|


                                   PM------|
  S S S S  S  S  S  S  S  S  S  S  S  S  S  S
|----------------------------------------------|
|----------------------------------------------|
|----------------------------------------------|
|----------------------------------------------|
|-7-7-7-7--5--5--5--5--------------------------|
|----------------------8--8--8--8--7--7--7--7--|
|
| S S S S  S  S  S  S  S  S  S  S  S  S  S  S
|----------------------------------------------|
|-6-6-6-6S13-13-13-13-12-12-12-12--------------|
|---------------------------------13-13-13-13\-|
|----------------------------------------------|
|----------------------------------------------|
|----------------------------------------------|


  PM-------------------------------------------------|
  S S S S S S S S  S  S  S  S  S  S  S S   S S S S S S S S S S S S S S S S
|----------------------------------------|---------------------------------|
|----------------------------------------|---------------------------------|
|----------------------------------------|---------------------------------|
|----------------------------------------|---------------------------------|
|----------------------------------------|-------------8-8-7-7-7-7-7-7-7-7-|
|-5-5-5-5-5-5-5-5--5--5--5--5--8--8--8-8-|-5-5-5-5-5-5---------------------|
|
| PM----| TPTPTP
| S S S S S S S S  S  S  S  S  S  S  S S   S S S S S S S S S S S S S S S S
|----------------------------------------|---------------------------------|
|---------------5h10-10-10-10-10-10-10-5h|=6-6-6-6-6-6-6-3h5-5-5-5-5-5-5-5-|
|---------5-5----------------------------|---------------------------------|
|-7-7-7-7-----7--------------------------|---------------------------------|
|----------------------------------------|---------------------------------|
|----------------------------------------|---------------------------------|


                                             Finish
  F5                       F5   E5   G#5      A5
  Gtrs I, II                                  Gtr I
  H.                       Q    H     H       W            +W     10x
|-----------------------------|-------4----||----------||----------||
|--------------------------6--|-5-----x----||----------||o--------o||
|--------------------------x--|-x-----1----||-2--------||--(2)-----||
|-3------------------------3--|-2----------||-2--------||--(2)-----||
|-3---------------------------|------------||-0--------||o-(0)----o||
|-1---------------------------|------------||----------||----------||
|
| Gtr III                                     Gtr II
| PM---------------------|            ~~
| S  S S S S S S S S S S S Q    H     H       W            +W     10x
|-----------------------------|------------||----------||----------||
|-----------------------------|------------||----------||o--------o||
|------------------5-5-5-5----|------------||-2--------||--(2)-----||
|----------7-7-7-7---------3--|-2----------||-2--------||--(2)-----||
|-8--8-8-8-----------------3--|-2----/6----||-0--------||o-(0)----o||
|--------------------------1--|-0----/4----||----------||----------||



Duration Legend
---------------
W - whole; H - half; Q - quarter; E - 8th; S - 16th; T - 32nd; X - 64th; a - acciaccatura
+ - note tied to previous; . - note dotted; .. - note double dotted
Uncapitalized letters represent notes that are staccato (1/2 duration)
Irregular groupings are notated above the duration line
Duration letters will always appear directly above the note/fret number it represents the
duration for.  Duration letters with no fret number below them represent rests.  Multi-
bar rests are notated in the form Wxn, where n is the number of bars to rest for.  Low
melody durations appear below the staff

Tablature Legend
----------------
 h   - hammer-on
 p   - pull-off
 b   - bend
 pb  - pre-bend
 r   - bend release (if no number after the r, then release immediately)
 /\  - slide into or out of (from/to "nowhere")
 s   - legato slide
 S   - shift slide
 - natural harmonic
[n]  - artificial harmonic
n(n) - tapped harmonic
 ~   - vibrato
 tr  - trill
 T   - tap
 TP  - trem. picking
 PM  - palm muting
\n/  - tremolo bar dip; n = amount to dip
 \n  - tremolo bar down
 n/  - tremolo bar up
/n\  - tremolo bar inverted dip
 =   - hold bend; also acts as connecting device for hammers/pulls
 <> - volume swell (louder/softer)
 x   - on rhythm slash represents muted slash
 o   - on rhythm slash represents single note slash

Misc Legend
-----------
 |  - bar
||  - double bar
||o - repeat start
o|| - repeat end
*|  - double bar (ending)
 :  - bar (freetime)
 $  - Segno
 &  - Coda
Tempo markers -  = BPM(8/16=s8/s16), where s8 = swing 8ths, s16 = swing 16ths
Добавлено: 08.11.2013
Другие материалы по этой песне:

Страница создана 08.11.2013
http://primanota.ru/black-dahlia-murder/carbonized-in-cruciform-chords.htm
Привет, Гость.
Предлагаем пройти революционный курс по гитаре.
Подарок от PrimaNota.Ru, забирай!