PrimaNota.ru - самый крупный в мире бесплатный архив песенных текстов, аккордов, табулатур и нот


Black Crowes - Wee Who See The Deep - текст песни, таба, видео

Регистрация Запомнить меня
Войти через:  Facebook Google Twitter Vk Yandex Mail.ru

Black Crowes - Wee Who See The Deep - текст песни, таба, видео

Печатать
Просмотров: 188
Black Crowes
Song: Wee Who See The Deep
Album: Warpaint
Tabbed by Messiah01 (Chris)

This is my favorite song off their new album,"Warpaint." Something in Am, where Rich 
his double-humbucker tele, and Luther uses a Les Paul. I only have the intro so far, but if 
can post corrections or the other parts, i'd appreciate it.

E|---------------------------------|---------------|
B|---------------------------------|---------------|
G|---------------------------------|---------------|
D|-7-7-7-7-7--5-5-5-5-5--4-4-4-4-4-|---------5-----|
A|-7-7-7-7-7--5-5-5-5-5--4-4-4-4-4-|-----5-7----7~~|
E|-5-5-5-5-5--3-3-3-3-3--2-2-2-2-2-|-5-7-----------|
       A5         G5        F#5        Wah Riff

Luther plays a variation of the Wah Riff like this

E|-x-x-x-x-x-------------------|
B|-x-x-x-x-x-------------------|
G|-x-x-x-x-x-------------12----|
D|-x-x-x-x-x-------12-14----14~|
A|-x-x-x-x-x-12-14-------------|
E|-x-x-x-x-x-------------------|

Hope you enjoy this tab

                                  Rock On Amoricans
Добавлено: 30.03.2012
Другие материалы по этой песне:
  • Аккорды и текст

Страница создана 30.03.2012
http://primanota.ru/black-crowes/wee-who-see-the-deep-chords.htm
Привет, Гость.
Предлагаем пройти революционный курс по гитаре.
Подарок от PrimaNota.Ru, забирай!