PrimaNota.ru - самый крупный в мире бесплатный архив песенных текстов, аккордов, табулатур и нот


Black Crowes - Thunderstorm 6 54 Pm - таба, видео

Регистрация Запомнить меня
Войти через:  Facebook Google Twitter Vk Yandex Mail.ru

Black Crowes - Thunderstorm 6 54 Pm - таба, видео

Печатать
Просмотров: 110
The Black Crowes
Song Title: Thunderstorm 6:54 PM
TBC Original? Yes
Written By: Chris and Rich Robinson
Recording Session: Tall
Record: Tall (released as "Lost Crowes")
Live Debut: 11/28/1992
Shows: 14 times played live
Notes: When this song was in its early stages during the High As The Moon Tour, it
the line "Funny it seems, the ways of these days, wiser for the time, start to need the pain"

------------------------------------------
The above information was taken from www.crowesbase.com

Tuning: DGDGBD (Open G) with a capo at the 3rd fret.  All notes are relative to the

capo.

Intro/Verse:
D--5--5-5-5--5-5--3--3---3--3-3--|
B--3--3-3-3--3-3--3--3---3--3-3--|
G--4--4-4-4--4-4--3--3-3-3--3-3--|
D--5--5---5--5-5--3----3-3--3-3--|
G--0--0---0--0-0--0----0-0--0-0--|
D--------------------------------|

D--0---3---0-------0---0-0-0---0-0-|
B--1-1-1-----1-----3---3-3-3---3-3-|
G--2---2---------2-0---0-0-0---0-0-|
D--3---------------1---1-1-2---2-2-|
G--0-----0-----0---0-0-----0-0-----|
D----------------------------------|

1st ending:
D--3-3-3-3-5---5-5--|
B--1-1-1-1-3---3-3--|
G--0-0-0-0-0---0-0--|
D--0---0-0-0---0-0--|
G--3-------5-5------|
D-------------------|

2nd ending:
D--3-3-3-3-5-5-5-5-5-|
B--1-1-1-1-3-3-3-3-3-|
G--0-0-0-0-0-0-0-0-0-|
D--0---0-0-0-0-0-0-0-|
G--3-------5-5-5-5-5-|
D--------------------|

Chorus:
D--0-0--0-0-0-0-0---0-0-0-0-0--|
B--0-0--0-1-0-3-0-5-0-3-0-1-0--|
G--0-0--0-0-0-0-0-0-0-0-0-0-0--|
D--0-0--0-2-0-4-0-0-0-4-0-0-0--|
G--0-0--0-0-0-0-0-5-0-0-0-2-0--|
D------------------------------|

D--0-0-0-0-0---0-0-0-0-0--|
B--0-1-0-3-0-5-0-3-0-1-0--|
G--0-0-0-0-0-0-0-0-0-0-0--| x7
D--0-2-0-4-0-0-0-4-0-0-0--|
G--0-0-0-0-0-5-0-0-0-2-0--|
D-------------------------|

D--0---0-0--0---0-0--0---0-0--0---0-0--|
B--3---3-3--3---3-3--3---3-3--3---3-3--|
G--0-0-0-0--0-0-0-0--0-0-0-0--0-0-0-0--|
D--1-1-1-1--1-1-1-1--2-2-2-2--2-2-2-2--|
G--0-0-0-0--0-0-0-0--0-0-0-0--0-0-0-0--|
D--------------------------------------|


D--3-3----3-3-3---3-5-5---5-5--5--5-5-5-5--|
B--1-1----1-1-1---1-3-3---3-3--3--3-3-3-3--|
G--0-0-0--0-0-0-0-0-0-0-0-0-0--0--0-0-0-0--|
D--0---0--0-0---0---0-0-0-0-0--0--0-0-0-0--|
G--3---3----3---3---5---5-5-5--5--5-5-5-5--|
D------------------------------------------|
Добавлено: 11.03.2012
Другие материалы по этой песне:
  • Аккорды и текст

Страница создана 11.03.2012
http://primanota.ru/black-crowes/thunderstorm-6-54-pm-chords.htm
Привет, Гость.
Предлагаем пройти революционный курс по гитаре.
Подарок от PrimaNota.Ru, забирай!