PrimaNota.ru - самый крупный в мире бесплатный архив песенных текстов, аккордов, табулатур и нот


Black Crowes - Sunday Night Buttermilk Waltz - таба, видео

Регистрация Запомнить меня
Войти через:  Facebook Google Twitter Vk Yandex Mail.ru

Black Crowes - Sunday Night Buttermilk Waltz - таба, видео

Печатать
Просмотров: 166
Уроки эстрадного вокала в Санкт-Петербурге
The Black Crowes
Song Title: Sunday Night Buttermilk Waltz
TBC Original? Yes
Written By: C.R & R.R.
Recording Session: Tall, Amorica
Record: Amorica (bonus track)
Live Debut: 01/25/1995
Shows: 23 times played live
Notes: Originally recorded during the Tall sessions and released as a bonus track on the 
1998 reissue of Amorica as part of the Sho' Nuff Box Set. It was originally titled 
Saturday Night Buttermilk Waltz.

-----------------------------
The above information is taken from www.crowesbase.com

Tuning: DGDGBD (Open G)

This is Rich Robinson's part only.  Brackets indicate a natural harmonic.

Intro:
D-------------------|
B--[12]--[12]-[12]--|
G--[12]--[12]-[12]--|
D--[12]--[12]-[12]--|
G--[12]--[12]-[12]--|
D-------------------|

D------------------|
B--[12]-[12]-[12]--|
G--[12]-[12]-[12]--| x6
D--[12]-[12]-[12]--|
G--[12]-[12]-[12]--|
D------------------|

D-------------|
B--[12]-[12]--|
G--[12]-[12]--|
D--[12]-[12]--|
G--[12]-[12]--|
D-------------|

First Theme:
D--------0-0------0-0--------------0-0------0-0-------------|
B--[12]--0-0-[7]--0-0---2----[12]--0-0-[7]--0-0---3--0------|
G--[12]--0-0-[7]--0-0-----0--[12]--0-0-[7]--0-0--------2-0--| x4
D--[12]------[7]-------------[12]------[7]------------------|
G--[12]------[7]------0------[12]------[7]------0-----------|
D-----------------------------------------------------------|

D--------0-0------0-0--------------0-0------0-0-------------|
B--[12]--0-0-[7]--0-0--------[12]--0-0-[7]--0-0-------------|
G--[12]--0-0-[7]--0-0---4-0--[12]--0-0-[7]--0-0---5--4---0--| x4
D--[12]------[7]-------------[12]------[7]-------------5----|
G--[12]------[7]------0------[12]------[7]------0-----------|
D-----------------------------------------------------------|

D--------0-0------0-0-----5--5-5--5-5--|
B--[12]--0-0-[7]--0-0-----3--3-3--3-3--|
G--[12]--0-0-[7]--0-0---4-0--0-0--0-0--|
D--[12]------[7]-----------------------|
G--[12]------[7]------0----------------|
D--------------------------------------|

Second Theme:
D--5-5-5-5-5-5-5--5-5--5-5-5-5-5-5--5-5--|
B--3-3-3-3-3-3-3--3-3--3-3-3-3-3-3--3-3--|
G--0-0-0-0-0-4-4--4-4--0-0-0-0-0-0--0-0--| x4
D--4-4-5-------5--5-5--0-0-0-0-4-5-------|
G--0-0-0-------0--0-0--4-4-5-------------|
D----------------------------------------|

D--5-5-5-5-5-5-5--5-5--5-5-5-5-5-5-5-5-----5--|
B--3-3-3-3-3-3-3--3-3--3-3-3-3-3-3-3-3-----3--|
G--0-0-0-0-0-4-4--4-4--0-0-0-0-0-0-0-0-0-0-0--|
D--4-4-5-------5--5-5--0-0-0-0-4-5-5-5-5-5-5--|
G--0-0-0-------0--0-0--4-4-5-----------0-0----|
D---------------------------------------------|

Third Theme:
D---------------------------|
B--------0----0-0-2/5--5-5--|
G--1p0---0----0-0-----------| x7
D------1---2------2/5--5-5--|
G---------------------------|
D---------------------------|

(1st ending)
D---------------------|
B--------0---0-2/5-5--|
G--1p0---0---0--------|
D------1---2---2/5-5--|
G---------------------|
D---------------------|

(2nd ending)
D---------------------|
B------0-0-0-0-2/5-5--|
G--1p0-0-0-0-0-0-0-0--|
D------1---2---0-0-0--|
G---------------------|
D---------------------|

After the intro, the themes are played in order then repeated.
Добавлено: 19.06.2012
Другие материалы по этой песне:
  • Аккорды и текст

Страница создана 19.06.2012
http://primanota.ru/black-crowes/sunday-night-buttermilk-waltz-chords.htm
Привет, Гость.
Предлагаем пройти революционный курс по гитаре.
Подарок от PrimaNota.Ru, забирай!